Jimmy Eat World - Bleed American Chords & Tabs

 

Bleed American Chords & Tabs

Jimmy Eat World Chords & Tabs

Version: 7 Type: Tab 0 ratings
1 star 2 stars 3 stars 4 stars 5 stars
comments

Bleed American Tab

Intro: 
Guitar 1 
|-----0-------0-----------0-------0-------------0-------0----- 
|---0-2-----0-2-----0---0-2-----0-2-----0-----0-2-----0-2---0- 
|------------------------------------------------------------- 
|-4-----4-4-----4-4---0-----0-0-----0-0---4-4-----4-4-----4--- 
|-4-----4-4-----4-4---0-----0-0-----0-0---4-4-----4-4-----4--- 
|-4-----4-4-----4-4---0-----0-0-----0-0---4-4-----4-4-----4--- 

|--------------------------------- 
|--------------------------------- 
|-------------------------4-4-4-4- 
|-7-7-7-7-7-7-7-7-0-0-0-0-4-4-4-4- 
|-7-7-7-7-7-7-7-7-0-0-0-0-2-2-2-2- 
|-7-7-7-7-7-7-7-7-0-0-0-0--------- 

Guitar 2 
|------------------------------------------------------------- 
|---0-2-----0-2-----0---0-2-----0-2-----0-----0-2-----0-2---0- 
|-------------------4-------------------4-------------------4- 
|-4-----4-4-----4-4---0-----0-0-----0-0---4-4-----4-4-----4--- 
|-4-----4-4-----4-4---0-----0-0-----0-0---4-4-----4-4-----4--- 
|-4-----4-4-----4-4---0-----0-0-----0-0---4-4-----4-4-----4--- 

|--------------------------------- 
|-0-0-0-0-0-0-0-0-0-0-0-0-0-0-0-0- 
|-4-4-4-4-4-4-4-4-4-4-4-4-4-4-4-4- 
|--------------------------------- 
|--------------------------------- 
|--------------------------------- 
  

Verse: 
Guitar 1 
|----------------------------------------------------------------- 
|----------------------------------------------------------------- 
|----------------------------------------------------------------- 
|-4-4-4-4-4-4-4-4-4-4-4-4-4-4-4-4-0-0-0-0-0-0-0-0-4-4-4-4-4-4-4-4- 
|-4-4-4-4-4-4-4-4-4-4-4-4-4-4-4-4-0-0-0-0-0-0-0-0-2-2-2-2-2-2-2-2- 
|-4-4-4-4-4-4-4-4-4-4-4-4-4-4-4-4-0-0-0-0-0-0-0-0----------------- 
  |________________________palm-muted____________________________| 

last time 
|----------------------------------------------------------------- 
|----------------------------------------------------------------- 
|-------------------------------------------------4---4---4---4--- 
|-4-4-4-4-4-4-4-4-4-4-4-4-4-4-4-4-0-0-0-0-0-0-0-0-x---x---x---x--- 
|-4-4-4-4-4-4-4-4-4-4-4-4-4-4-4-4-0-0-0-0-0-0-0-0-2---2---2---2--- 
|-4-4-4-4-4-4-4-4-4-4-4-4-4-4-4-4-0-0-0-0-0-0-0-0----------------- 
  |_________________palm-muted___________________| 

Guitar 2 
|----------------------------------------------------------------- 
|----------------------------------------------------------------- 
|----------------------------------------------------------------- 
|-4-4-4-4-4-4-4-4-4-4-4-4-4-4-4-4-7-7-7-7-7-7-7-7-4-4-4-4-4-4-4-4- 
|-4-4-4-4-4-4-4-4-4-4-4-4-4-4-4-4-5-5-5-5-5-5-5-5-2-2-2-2-2-2-2-2- 
|-4-4-4-4-4-4-4-4-4-4-4-4-4-4-4-4--------------------------------- 
  |________________________palm-muted____________________________| 
[ Tab from: http://www.guitartabs.cc/tabs/j/jimmy_eat_world/bleed_american_tab_ver_7.html ]
|--------------------------------------------------------------- 
|--------------------------------------------------------------- 
|--------------------------------------------------------------- 
|-4-4-4-4-4-4-4-4-4-4-4-4-4-4-4-4-0-0-0-0-0-0-0-0-----4------4-- 
|-4-4-4-4-4-4-4-4-4-4-4-4-4-4-4-4-0-0-0-0-0-0-0-0-0-0-2--0-0-2-- 
|-4-4-4-4-4-4-4-4-4-4-4-4-4-4-4-4-0-0-0-0-0-0-0-0--------------- 

Chorus: 
Guitar 1 
|-----0-------0-----------0-------0--------------0-------0---- 
|---0-2-----0-2-----0---0-2-----0-2-----0------0-2-----0-2--0- 
|------------------------------------------------------------- 
|-4-----4-4-----4-4---0-----0-0-----0-0---4-4-----4-4-----4--- 
|-4-----4-4-----4-4---0-----0-0-----0-0---4-4-----4-4-----4--- 
|-4-----4-4-----4-4---0-----0-0-----0-0---4-4-----4-4-----4--- 

|--------------------------------- 
|--------------------------------- 
|-------------------------4-4-4-4- 
|-7-7-7-7-7-7-7-7-0-0-0-0-4-4-4-4- 
|-7-7-7-7-7-7-7-7-0-0-0-0-2-2-2-2- 
|-7-7-7-7-7-7-7-7-0-0-0-0--------- 

Guitar 2 
|------------------------------------------------------------- 
|---0-2-----0-2-----0---0-2-----0-2-----0-----0-2-----0-2---0- 
|-------------------4-------------------4-------------------4- 
|-4-----4-4-----4-4---0-----0-0-----0-0---4-4-----4-4-----4--- 
|-4-----4-4-----4-4---0-----0-0-----0-0---4-4-----4-4-----4--- 
|-4-----4-4-----4-4---0-----0-0-----0-0---4-4-----4-4-----4--- 

|--------------------------------- 
|-0-0-0-0-0-0-0-0-0-0-0-0-0-0-0-0- 
|-4-4-4-4-4-4-4-4-4-4-4-4-4-4-4-4- 
|--------------------------------- 
|--------------------------------- 
|--------------------------------- 

Bridge: 
Guitar 1 
|----------------------------------------------------------------- 
|----------------------------------------------------------------- 
|---------------------------------2-2-2-2-2-2-2-2---------4-4-4-4- 
|-4-4-4-4-4-4-4-4-0-0-0-0-0-0-0-0-2-2-2-2-2-2-2-2-0-0-0-0-x-x-x-x- 
|-4-4-4-4-4-4-4-4-0-0-0-0-0-0-0-0-0-0-0-0-0-0-0-0-0-0-0-0-2-2-2-2- 
|-4-4-4-4-4-4-4-4-0-0-0-0-0-0-0-0-----------------0-0-0-0--------- 

Guitar 2 
|--------------------------------------------------------- 
|-----7------7------7------7------7------7------7------7-- 
|--------------------------------------------------------- 
|-4-4----4-4----4-4----4-4----4-4----4-4----4-4----4-4---- 
|--------------------------------------------------------- 
|--------------------------------------------------------- 

|--------------------------------- 
|--------------------------------- 
|-9-9-9-9-7-7-6-6-7-7-7-7--------- 
|-x-x-x-x-x-x-x-x-x-x-x-x-XXXXXXXX 
|-7-7-7-7-5-5-4-4-5-5-5-5-XXXXXXXX 
|-------------------------XXXXXXXX 
  

Solo: 
Guitar 1 continue Bridge riff 

Guitar 2 
|------------------------------------------------------------------- 
|---2--5-2-2---2----2------5-7-2------2--5-2-2---2------------------ 
|-4----------4----4----44--------4--4----------4----4-4-4h6-4-4-6-6- 
|-----------------------------------------------------------x-x-x-x- 
|-----------------------------------------------------------2-2-4-4- 
|------------------------------------------------------------------- 

End on: 
|----- 
|----- 
|----- 
|-4-4- 
|-4-4- 
|-4-4-
Comments