Jimmy Eat World - Bleed American Chords & Tabs

 

Bleed American Chords & Tabs

Jimmy Eat World Chords & Tabs

Version: 5 Type: Tab 0 ratings
1 star 2 stars 3 stars 4 stars 5 stars
comments

Bleed American Tab

"Tom Ellis" 

Hey it's my first full tab, so I've decided to post something
I've been playing guitar for 7 months so i think i know enough to actually 
post somthing
This song im guessing is in drop D due to the obvious D5's

I think the bridge might be wrong




Chorus:
|---------------------------------------------------------------------------------------------|
|-----2------2-------------2----------------------2------2------------------------------------|
|---4------4-----4-------4-------4-6-----4------4------4------4----------------------44444444-|
|44-----44----44-----0-0-----0-0-----0-0-----44-----44-----44----77777777--44444444--44444444-|
|44-----44----44-----0-0-----0-0-----0-0-----44-----44-----44----77777777--44444444--22222222-|
|22-----22----22-----X-X-----X-X-----X-X-----22-----22-----22----55555555--22222222-----------|

Verse:
|---------------------------------------|
|---------------------------------------|
|-----------------------------44444444--|
|4444444444444444--00000000---44444444--|x4
|4444444444444444--00000000---22222222--|
|2222222222222222--XXXXXXXX-------------|
(-----------------PM-----------------)

Chorus x2
Verse x4
Chorus x2

Bridge (there's another guitar behind but im lazy):
|----------------------------------------------------------------------------|
|----------------------------------------------------------------------------|
|------------------------------------------------------77777777-99999999-----|
|4444444444444444--0000000000000000--7777777777777777--77777777-99999999-----|x2
|4444444444444444--0000000000000000--7777777777777777--55555555-77777777-----|
|2222222222222222--XXXXXXXXXXXXXXXX--5555555555555555------------------------|

[ Tab from: http://www.guitartabs.cc/tabs/j/jimmy_eat_world/bleed_american_tab_ver_5.html ]
Solo (play Bridge x2 behind the solo):
|------------------------------------------------------------------------------------------|
|------------------------------------------------------------------------------------------|
|--------9-------------------9-11----------------9-----------------------------------------|
|-9-11-9---11-9-11----9-11-9------11-9----9-11-9---11-9-11----9-9h11-9---9999-111111-9-----|x2
|----------------------------------------------------------------------9---------------9---|
|------------------------------------------------------------------------------------------|

Chorus x2

End on:
|----|
|----|
|----|
|-44-|
|-44-|
|-22-|

**Lyrics**

Verse:
Iím not alone cause the TVís on yeah.
Iím not crazy cause I take the right pills everyday.
And rest, clean your conscious, clear your thoughts with speyside with your 
grain.
Clean your conscious, clear your thoughts with speyside.

Chorus:
Salt, sweat, sugar on the asphalt.
Our hearts littering the topsoil.
Tune in and we can get the last call.
Our lives are coal.
Salt, sweat, sugar on the asphalt.
Our hearts littering the topsoil.
Sign up it's the picket line of a parade.
Our lives.

Verse:
Iím not alone cause the TVís on yeah.
Iím not crazy cause I take the right pills everyday.
And rest, clean your conscious, clear your thoughts with speyside and your 
grain.
Clean your conscious, clear your thoughts with speyside.

Chorus:
Salt, sweat, sugar on the asphalt.
Our hearts littering the topsoil.
Tune in and we can get the last call.
Our lives are coal.
Salt, sweat, sugar on the asphalt.
Our hearts, yep, littering the topsoil.
Sign up it's the picket line of a parade, our lives are coal.

Bridge:
Oooooooooooooh
Greed from my arm.
Wonít they give it a rest now, rest now, now, now, noww,nowww!

Chorus:
Salt, sweat, sugar on the asphalt.
Our hearts littering the topsoil.
Tune in and we can get the last call, our lives are coal.
Salt, sweat, sugar on the asphalt, our hearts littering the topsoil.
Sign up, picket line of a parade.
Our lives.

Comments