Jimmy Eat World - Bleed American Chords & Tabs

 

Bleed American Chords & Tabs

Jimmy Eat World Chords & Tabs

Version: 3 Type: Tab 0 ratings
1 star 2 stars 3 stars 4 stars 5 stars
comments

Bleed American Tab

#----------------------------------PLEASE NOTE---------------------------------#
#This file is the author's own work and represents their interpretation of the #
#song. You may only use this file for private study, scholarship, or research. #
#------------------------------------------------------------------------------#

Song:Bleed America
Artist:Jimmy Eat World
Album:Bleed America
Author:Frank Sortelli
tuning:standard

Intro: 
Guitar 1 
|------------------------------------------------------------- 
|---0-2-----0-2-----0---0-2-----0-2-----0-----0-2-----0-2---0- 
|------------------------------------------------------------- 
|-4-----4-4-----4-4---0-----0-0-----0-0---4-4-----4-4-----4--- 
|-4-----4-4-----4-4---0-----0-0-----0-0---4-4-----4-4-----4--- 
|-4-----4-4-----4-4---0-----0-0-----0-0---4-4-----4-4-----4--- 

|--------------------------------- 
|--------------------------------- 
|-------------------------4-4-4-4- 
|-7-7-7-7-7-7-7-7-0-0-0-0-4-4-4-4- 
|-7-7-7-7-7-7-7-7-0-0-0-0-2-2-2-2- 
|-7-7-7-7-7-7-7-7-0-0-0-0--------- 



Verse: 
Guitar 1 
|----------------------------------------------------------------- 
|----------------------------------------------------------------- 
|----------------------------------------------------------------- 
|-4-4-4-4-4-4-4-4-4-4-4-4-4-4-4-4-0-0-0-0-0-0-0-0-4-4-4-4-4-4-4-4- 
|-4-4-4-4-4-4-4-4-4-4-4-4-4-4-4-4-0-0-0-0-0-0-0-0-2-2-2-2-2-2-2-2- 
|-4-4-4-4-4-4-4-4-4-4-4-4-4-4-4-4-0-0-0-0-0-0-0-0----------------- 
  |________________________palm-muted____________________________| 
[ Tab from: http://www.guitartabs.cc/tabs/j/jimmy_eat_world/bleed_american_tab_ver_3.html ]
last time 
|----------------------------------------------------------------- 
|----------------------------------------------------------------- 
|-------------------------------------------------4---4---4---4--- 
|-4-4-4-4-4-4-4-4-4-4-4-4-4-4-4-4-0-0-0-0-0-0-0-0-x---x---x---x--- 
|-4-4-4-4-4-4-4-4-4-4-4-4-4-4-4-4-0-0-0-0-0-0-0-0-2---2---2---2--- 
|-4-4-4-4-4-4-4-4-4-4-4-4-4-4-4-4-0-0-0-0-0-0-0-0----------------- 
  |_________________palm-muted___________________| 


Chorus: 
Guitar 1 
|-----0-------0-----------0-------0--------------0-------0---- 
|---0-2-----0-2-----0---0-2-----0-2-----0------0-2-----0-2--0- 
|------------------------------------------------------------- 
|-4-----4-4-----4-4---0-----0-0-----0-0---4-4-----4-4-----4--- 
|-4-----4-4-----4-4---0-----0-0-----0-0---4-4-----4-4-----4--- 
|-4-----4-4-----4-4---0-----0-0-----0-0---4-4-----4-4-----4--- 

|--------------------------------- 
|--------------------------------- 
|-------------------------4-4-4-4- 
|-7-7-7-7-7-7-7-7-0-0-0-0-4-4-4-4- 
|-7-7-7-7-7-7-7-7-0-0-0-0-2-2-2-2- 
|-7-7-7-7-7-7-7-7-0-0-0-0--------- 



Bridge: 
Guitar 1 
|----------------------------------------------------------------- 
|----------------------------------------------------------------- 
|---------------------------------2-2-2-2-2-2-2-2---------4-4-4-4- 
|-4-4-4-4-4-4-4-4-0-0-0-0-0-0-0-0-2-2-2-2-2-2-2-2-0-0-0-0-x-x-x-x- 
|-4-4-4-4-4-4-4-4-0-0-0-0-0-0-0-0-0-0-0-0-0-0-0-0-0-0-0-0-2-2-2-2- 
|-4-4-4-4-4-4-4-4-0-0-0-0-0-0-0-0-----------------0-0-0-0--------- 

real far out 
won’t they give it a rest now? 
  

Solo: (didnt feel like tabbing it sorry)
Guitar 1 continue Bridge riff 



End on: 
|----- 
|----- 
|----- 
|-4-4- 
|-4-4- 
|-4-4- 
  

Email me with comment or questions.
Frank sortelli    Firebreather6@cs.com
8:03 PM 9/5/01     copyright 2001
Comments