Jimmy Eat World - Bleed American Chords & Tabs

 

Bleed American Chords & Tabs

Jimmy Eat World Chords & Tabs

Version: 2 Type: Tab 0 ratings
1 star 2 stars 3 stars 4 stars 5 stars
comments

Bleed American Tab

im not sure if its in drop d or not but either way
its still sounds good .


jimmy eats world :
	bleed american

e------------------------------------------------------------
B------------------------------------------------------------
G-----4-6----4-6----4-----4-6----4-6----4----4-6----4-6----4-
D--44-----44-----44----00-----00-----00---44-----44-----44---
A--44-----44-----44----00-----00-----00---44-----44-----44---
E--44-----44-----44----00-----00-----00---44-----44-----44---
[ Tab from: http://www.guitartabs.cc/tabs/j/jimmy_eat_world/bleed_american_tab_ver_2.html ]
e---------------------
B---------------------
G---------------------
D--2-2-2-2-0-0-0---444-
A--0-0-0-0-0-0-0---222-
E----------0-0-0-------

e-----------------------
B-----------------------
G-----------------------
D-4------0-----4------(44) second time at the end
A-4-x16--0-x8--2--x8--(22)
E-4------0--------------
pm--------------|

e------------------------------------
B---------5---------------5-7--------
G---4-6-4---6-4-6---4-6-4-----6-4----you can double pick some of these
D------------------------------------of these notes 
A------------------------------------
E------------------------------------
Comments