Jimmy Eat World - Bleed American Chords & Tabs

 

Bleed American Chords & Tabs

Jimmy Eat World Chords & Tabs

Version: 1 Type: Tab 0 ratings
1 star 2 stars 3 stars 4 stars 5 stars
comments

Bleed American Tab

Song : Bleed American
Artist : Jimmy Eat World
Tabbed By: mjwk_1986@yahoo.com


Tuning: Dropped D

Intro

e  ---------------------------------------------------
b  ---------0--------0--------------0--------0--------
g  ------4--6-----4--6-----4-----4--6-----4--6-----4--
d  ---------------------------------------------------
a  --4-4------4-4-----4-4----0-0------0-0------0-0----
D  --4-4------4-4-----4-4----0-0------0-0------0-0----

e  ---------------------------------------------
b  ---------------------------------------------
g  ---------------------------------------------
d  --2-2-2-2-2----------------------------------
a  --0-0-0-0-0--0-0--2-2-2----------------------
D  -------------0-0--2-2-2----------------------

Verse

"I'm Not Alone Cause The T.v's.."

e  ---------------------------------------------
b  ---------------------------------------------
g  ---------------------------------------------
d  --------4------------------------------------
a  --4--0--2------------------------------------
D  --4--0---------------------------------------
P.M. ........


"And.."
[ Tab from: http://www.guitartabs.cc/tabs/j/jimmy_eat_world/bleed_american_tab.html ]
e  --0-0----------------------------------------
b  --0-0----------------------------------------
g  --0-0----------------------------------------
d  --6-6----------------------------------------
a  ---------------------------------------------
D  ---------------------------------------------

"Rest Clear Your Concious.."

e  ---------------------------------------------
b  ---------------------------------------------
g  ---------------------------------------------
d  -----6--4------------------------------------
a  --4--4--2--0--2------------------------------
D  --4--------0--2------------------------------

e  --0-0-0--------------------------------------
b  --0-0-0--------------------------------------
g  --0-0-0--------------------------------------
d  --6-6-6--------------------------------------
a  ---------------------------------------------
D  ---------------------------------------------

Chorus

"Soft Swear, Sugar On The.."

e  ---------------------------------------------------
b  ---------0--------0--------------0--------0--------
g  ------4--6-----4--6-----4-----4--6-----4--6-----4--
d  ---------------------------------------------------
a  --4-4------4-4-----4-4----0-0------0-0------0-0----
D  --4-4------4-4-----4-4----0-0------0-0------0-0----


"Our Lives.."

e  ---------------------------------------------
b  ---------------------------------------------
g  ---------------------------------------------
d  --2-2-2-2-2----------------------------------
a  --0-0-0-0-0--0-0--2-2-2----------------------
D  -------------0-0--2-2-2----------------------

Comments