Jimmy Eat World - Believe In What You Want Chords & Tabs

 

Believe In What You Want Chords & Tabs

Jimmy Eat World Chords & Tabs

Version: 1 Type: Bass Tab 0 ratings
1 star 2 stars 3 stars 4 stars 5 stars
comments

Believe In What You Want Bass Tab

"Believe In What You Want" by Jimmy Eat World
Transcribed by Jon Ritts (BigEarl192000@yahoo.com)

Tuned in Drop D

Verse: (0:00)
G|---------|---------|---------|---------|
D|---------|---------|---------|---------|
A|-5-5-5-5-|-3-3-3-3-|-1-1-1-1-|-1-1-1-1-|
D|---------|---------|---------|---------| (play 6x)

Chorus: (0:40)
G|---------------|---------------|---------------|---------------|
D|---------------|---------------|---------------|---------------|
A|-8--8-8-8--8-8-|-8--8-8-8--8-8-|-5--5-5-5--5-5-|-5--5-5-5--5-5-|
D|---------------|---------------|---------------|---------------|
[ Tab from: http://www.guitartabs.cc/tabs/j/jimmy_eat_world/believe_in_what_you_want_btab.html ]
G|---------------|---------------|---------------|---------------|
D|---------------|---------------|---------------|---------------|
A|---------------|---------------|---------------|---------------|
D|-8--8-8-8--8-8-|-8--8-8-8--8-8-|-5--5-5-5--5---|-8--8-8-8--8-8-| (play 2x)

Play verse 4x (1:05)
Play chorus 2x again (1:31)

Bridge: (1:57)
G|--------------|--------------|--------------|--------------|
D|--------------|--------------|--------------|--------------|
A|-5--5--5--5-5-|-5--5--5--5-5-|--------------|--------------|
D|--------------|--------------|-8--8--8--8-8-|-8--8--8--8-8-| (play 4x)

Play verse 2x (2:22)
Play chorus 2x (2:35)

Ending: (3:01)
G|----------|
D|----------|
A|----------|
D|-3--------|
Comments