Jimmy Eat World - Authority Song Chords & Tabs

 

Authority Song Chords & Tabs

Jimmy Eat World Chords & Tabs

Version: 2 Type: Bass Tab 0 ratings
1 star 2 stars 3 stars 4 stars 5 stars
comments

Authority Song Bass Tab

   
Jimmy Eat World - The Authority Song

I was browsing earlier at the tab for this song, and i found a huge lot of
inaccuracies, so here is the COREECT version of the song with the times and
everything.  Great song, easy to play--Everything you need is right here.

If you need a song tabbed, don't hesitate to email me at:

ScorpDave@aol.com

Standard Tuning E A D G

(First guitar plays same riff twice, then comes in the second guitar together,
then the bass makes it's entry)

/ = Slide Up

Verse (0:15)
G---------------|
D---------------|
A--55-000-222000| x1
E-0-------------|             
                              
Verse (0:19)                         
G---------------|              
D---------------|
A--55-000-22222-| x1
E-0-------------|

Verse (0:23)
G---------------|
D---------------|
A--55-000-222000| x1
E-0-------------|   

Verse (0:27)                         
G---------------|              
D---------------|
A--55-000-22222-| x1
E-0-------------|

Pre-Chorus (0:31)
G--------------------------------|
D--------------------------------|
A----------------5-55-5552-22-222| x1
E3-33-3335-55-555----------------|

Pre-Chorus (0:38)
G-----------------|
D-----------------|
A-----------------| x1
E3-33-333--5555555|

Chorus (0:42)
G--------------|
D--------------|
A-55-00-2-22-22| x4
E0-------------|

Verse (0:58)
G---------------|
D---------------|
A--55-000-222000| x1
E-0-------------|             
                              
Verse (1:02)                         
G---------------|              
D---------------|
A--55-000-22222-| x1
E-0-------------|

Verse (1:05)
G---------------|
D---------------|
A--55-000-222000| x1
E-0-------------|   
[ Tab from: http://www.guitartabs.cc/tabs/j/jimmy_eat_world/authority_song_btab_ver_2.html ]
Verse (1:09)                         
G---------------|              
D---------------|
A--55-000-22222-| x1
E-0-------------|

Pre-Chorus (1:13)
G--------------------------------|
D--------------------------------|
A----------------5-55-5552-22-222| x1
E3-33-3335-55-555----------------|

Pre-Chorus (1:21)
G-----------------|
D-----------------|
A-----------------| x1
E3-33-333--5555555|

Chorus (1:25)
G--------------|
D--------------|
A-55-00-2-22-22| x4
E0-------------|

Post-Chorus (1:40)
G--------------------|
D--------------------|
A2-22-222------------| x2
E--------3-33-333----|

Post-Chorus 2 (1:49)
G----------------|
D----------------|
A---------2-2----| x2
E5-55-555----3-3-|

Post-Chorus 3 (1:56)
G---------------------------|
D---------------------------|
A---------2-2---------------| x1
E5-55-555----3-35--5-5-5-555|

(Guitar plays first two verse, shortens second verse)

Fill (2:11)
G-----|
D-2/3-|
A-----| x1
E-----|

Verse (2:12)
G---------------|
D---------------|
A--55-000-222000| x1
E-0-------------|             
                              
Verse (2:15)                         
G---------------|              
D---------------|
A--55-000-22222-| x1
E-0-------------|

Verse (2:19)
G---------------|
D---------------|
A--55-000-222000| x1
E-0-------------|   

Verse (2:23)                         
G---------------|              
D---------------|
A--55-000-22222-| x1
E-0-------------|

Pre-Chorus (2:27)
G--------------------------------|
D--------------------------------|
A----------------5-55-5552-22-222| x3
E3-33-3335-55-555----------------|

Pre-Chorus (2:51)
G-----------------|
D-----------------|
A-----------------| x1
E3-33-333--5555555|

Chorus (2:54)
G--------------|
D--------------|
A-55-00-2-22-22| x7
E0-------------|

Concluding Verse (3:21)
G------------------------|
D------------------------|
A-55-00-222222222--------| x1
E0---------------3-3-3-5-|

El fin.
Comments