Jimmy Eat World - A Sunday Chords & Tabs

 

A Sunday Chords & Tabs

Jimmy Eat World Chords & Tabs

Version: 1 Type: Bass Tab 0 ratings
1 star 2 stars 3 stars 4 stars 5 stars
comments

A Sunday Bass Tab

"A Sunday" by Jimmy Eat World
Transcribed by Jon Ritts (BigEarl192000@yahoo.com)

Tuned in Drop D

Verse: (0:13)
G|-----------------|-----------------|
D|-------2-2-2-2-2-|-----------------|
A|-----------------|-2-2-2-2-2-2-2-2-|
D|-0-0-0-----------|-----------------| (play 4x)
[ Tab from: http://www.guitartabs.cc/tabs/j/jimmy_eat_world/a_sunday_btab.html ]
Chorus: (0:36)
G|-----------------|-----------------|-----------------|-----------------|
D|-----------------|-----------------|-----------------|-----------------|
A|-----------------|-----------------|-2-2-2-2-2-2-2-2-|-----------------|
D|-4-4-4-4-4-4-4-4-|-2-2-2-2-2-2-2-2-|-----------------|-5-5-5-5-5-5-5-5-|

Play verse 2x (0:48)
Play chorus (1:00)

Bridge: (1:23)
G|----------|----------|
D|-0--------|-5--------|
A|----------|----------|
D|----------|----------| (play 2x)

Play verse 4x (1:35)
Play chorus 2x (1:58)
Play bridge 2x (2:33)
Play chorus again 4x (2:45)

Outro: (3:31)
G|-----------------|-----------------|
D|-----------------|-----------------|
A|-----------------|-----------------|
D|-0-0-0-0-0-0-0-0-|-5-5-5-5-5-5-5-5-| (play 8x)

Ending: (4:18)
G|----------|
D|----------|
A|----------|
D|-0--------|
Comments