Jimmy Eat World - A Praise Chorus Chords & Tabs

 

A Praise Chorus Chords & Tabs

Jimmy Eat World Chords & Tabs

Version: 2 Type: Bass Tab 0 ratings
1 star 2 stars 3 stars 4 stars 5 stars
comments

A Praise Chorus Bass Tab

   
-------------------------------------------------------------------------------
			    A Praise Chorus - Jimmy Eat World
-------------------------------------------------------------------------------
Tabbed By : Jacob Green
e-mail: revelation45@hotmail.com

Tuning:D A D G

verse
G|----|--|----------------------|--|
D|----|2x|----------------------|2x|
A|-0--|--|-0-0-2-4-0-0-2-2h4h2--|--|
D|---4|--|---------------------4|--|
[ Tab from: http://www.guitartabs.cc/tabs/j/jimmy_eat_world/a_praise_chorus_btab_ver_2.html ]
chorus
G|---------------------------------|--|----------------------------------------
D|---------------------------------|2x|----------------------------------------
A|---------------------------------|--|----------------------------------------
D|-00-000-022-222-244-444-444-444-4|--|00-000-022-222-2-4-2-00-000-000-000-022-

G|------|
D|------|
A|-----0|
D|-222--|

bridge 4x
G|--------|
D|--------|
A|-0-----0|
D|---2-4--|

outro
G|-------------------------------------------------------|
D|-------------------------------------------------------|
A|---------------------------------------------0-0-------|
D|-0-2-4-0-2-4-0-2-4-2-0-2-4-0-2-4-0-2-4-2-0-2--------2/7|


For the outro, bridge and the beginning of the verse play each note 
multiple times.  
===============================================================================
Comments