Jimmy Eat World - 12 23 Chords & Tabs

 

12 23 Chords & Tabs

Jimmy Eat World Chords & Tabs

Version: 1 Type: Bass Tab 0 ratings
1 star 2 stars 3 stars 4 stars 5 stars
comments

12 23 Bass Tab

"12.23.95" by Jimmy Eat World
Transcribed by Jon Ritts (BigEarl192000@yahoo.com)

Tuned in Drop D

Rest during intro

Verse: (0:52)
G|---------|---------|---------|---------|
D|-7-7-7-7-|-7-7-7-7-|-7-7-7-7-|-7-7-7-7-|
A|---------|---------|---------|---------|
D|---------|---------|---------|---------| (play 4x)

Chorus: (1:16)
G|-------|-------|-7-7-7-6-|-6-4-4--|
D|-------|-------|---------|--------|
A|-------|-------|---------|--------|
D|-------|-------|---------|--------|

G|-9-9-----|-------|-9-9-----|-------|-9-9-----|-------|-9-9-9h11----|-----------|
D|------12-|-------|------12-|-------|------12-|-------|----------12-|----12-12--|
A|---------|-------|---------|-------|---------|-------|-------------|-----------|
D|---------|-------|---------|-------|---------|-------|-------------|-----------|
[ Tab from: http://www.guitartabs.cc/tabs/j/jimmy_eat_world/12_23_btab.html ]
G|-------|-------|-------------|---------|
D|-------|-------|-12-12-12-11-|-11-9-9--|
A|-------|-------|-------------|---------|
D|-------|-------|-------------|---------|

G|-9-9-----|-------|-9-9-----|-------|-9-9-----|-------|-9-9-9h11----|-----------|
D|------12-|-------|------12-|-------|------12-|-------|----------12-|----12-12\-|
A|---------|-------|---------|-------|---------|-------|-------------|-----------|
D|---------|-------|---------|-------|---------|-------|-------------|-----------|

Play verse 4x (1:52)

2nd Chorus: (2:16)
G|-------|-------|---------|--------|
D|-------|-------|---------|--------|
A|-------|-------|-5-5-5-4-|-4-2-2--|
D|-------|-------|---------|--------|

G|--------|-------|--------|-------|--------|-------|-----------|---------|
D|--------|-------|--------|-------|--------|-------|-----------|---------|
A|-7-7--5-|-------|-7-7--5-|-------|-7-7--5-|-------|-7-7-7h9-5-|----5-5\-|
D|--------|-------|--------|-------|--------|-------|-----------|---------|
 (play 2x)

Play verse 4x (2:52)
Comments