Jimmy Buffett - Margaritaville Chords & Tabs

 

Margaritaville Chords & Tabs

Jimmy Buffett Chords & Tabs

Version: 1 Type: Tab 0 ratings
1 star 2 stars 3 stars 4 stars 5 stars
comments

Margaritaville Tab

   
-------------------------------------------------------------------------------
			     Margaritaville - Jimmy Buffett
-------------------------------------------------------------------------------
Tabbed by:Jaime
Email:RedneckFromHell283@yahoo.com

Tuning:Acoustic Guitar at Regular Tuning.

This tab is done on one line only, so it's perfect for beginners. It can be played on 
"A" string or "D" string; "A" string is good for singing the Margaritaville while playing, 
string is a higher pitch therefore harder to hear your voice while playing.

Intro

e|-----------------------------------|
B|-----------------------------------|
G|-----------------------------------|
D|-----------------------------------|
A|7-7-7-5-7--7-7-7-5-7--9-9-9-7-5-0--|
E|-----------------------------------|

e|---------------------------------------------------------------------------|
B|---------------------------------------------------------------------------|
G|---------------------------------------------------------------------------|
D|---------------------------------------------------------------------------|
A|---------------------------------------------------------------------------|
E|---------------------------------------------------------------------------|

All Verses

e|--------------------------------------------------------------------------------------------|
B|--------------------------------------------------------------------------------------------|
G|--------------------------------------------------------------------------------------------|
D|--------------------------------------------------------------------------------------------|
A|-7-7-5-7---7-7-5-4---7-7-7-9-7-7-7-5-4/7-------5-5-5-4-5---5-5-5-4-5---7-7-7-9-7-7-7-5-4-0--|
E|--------------------------------------------------------------------------------------------|

Chorus
[ Tab from: http://www.guitartabs.cc/tabs/j/jimmy_buffett/margaritaville_tab.html ]
e|-----------------------------------------------------------------------------------------------------------|
B|-----------------------------------------------------------------------------------------------------------|
G|-----------------------------------------------------------------------------------------------------------|
D|-----------------------------------------------------------------------------------------------------------|
A|-9-9-7-7-5-5\4/5\4/5\4-0-----9-9-9-7--7-7-9-7-4-----9-9-9-11-9-9-11-12~-7-4-----5-5-5-4-2~~-----4-4-4-2-0--|
E|-----------------------------------------------------------------------------------------------------------|

(Verse)

(Chorus)

Solo

e|--------------------------------------------------------------------------------------------------------------------|
B|--------------------------------------------------------------------------------------------------------------------|
G|--------------------------------------------------------------------------------------------------------------------|
D|--------------------------------------------------------------------------------------------------------------------|
A|-5/7-7-7-5-7-----5/7-7-7-5-4-----5/7-7-7-9-7-7-7-5-4-4/7-----9-7-9-7-9-7-7-9-11-12-7-4-----5-5-5-4-2-----4-4-4-2-0--|
E|--------------------------------------------------------------------------------------------------------------------|

(Verse)

(Chorus)

Add to Last Chorus

e|--------------------------------------------------------|
B|--------------------------------------------------------|
G|--------------------------------------------------------|
D|--------------------------------------------------------|
A|---9-9-9-11-9-9-11-12~-7-4-----5-5-5-4-2-----4-4-4-2-0--|
E|--------------------------------------------------------|

(Intro)
============================================================================
| /  slide up
| \  slide down
| h  hammer-on
| p  pull-off
| ~  vibrato
| +  harmonic
| x  Mute note
=============================================================================== Again, I 
this song on an acoustic guitar, and it can be played on either the "A" string or the 
string, whichever you prefer. Any questions e-mail me at RedneckFromHell283@yahoo.com. Have Fun!
Comments