Jimmies Chicken Shack - Sitting With The Dog Chords & Tabs

 

Sitting With The Dog Chords & Tabs

Jimmies Chicken Shack Chords & Tabs

Version: 2 Type: Tab 0 ratings
1 star 2 stars 3 stars 4 stars 5 stars
comments

Sitting With The Dog Tab

   
Author/Artist: Jimmie's Chicken Shack
Title: Sitting with the dog
Transcribed by: Andrew Biles

I'm pretty sure this is a live version, haven't got the cd so can't
tell (www.mp3fanatic.com for the version I'm using).
Most of the order I've written out along the way, from what I remember it
being anyway.  Lyrics down the bottom as well.
Most of the open E string notes are palm muted so I haven't written it under
most of the tab.
A whammy bar is used on the version I've downloaded in the outro, but if you
don't have one, try bending the strings or just simply sliding up a fret.

Quick Key:

* = harmonic
^ = bend
. (under tab) = palm mute (read above)
x = mute
h = hammer
p = pull off
\ = slide
tremolo = play fast


 Intro
|---------------------------------------------------------------------------|
|---------------------------------------------------------------------------|
|-----9--9-----9--9-----9--12----12--11----11-----9--9-----9--11----11-10---|
|-----8--8-----8--8-----8-----11--------10--------8--8-----8-----10-------9-|
|-----7--7-----7--7-----7-------------------------7--7-----7----------------|
|-0-0------0-0------0-0-----------------------0-0------0-0------------------|

----------------------------------------------------------------------------|
----------------------------------------------------------------------------|
-10-9---9-8---8-7---7------9--9-----9-12----12---11-----------10-----9--9---|
------8-----7-----6--------8--8-----8----10---------10------9--------8--8---|
---------------------------7--7-----7------------------9--8----------7--7---|
-----------------------0-0------0-0------------------------------0-0------0-|

--------------------------|
--------------------------|
---9----------------------|
---8----5-5*-5*-5-5*-5*-5-|
---7--x-5-5*-5*-5-5*-5*-5-|
-0--------3*-3*---3*-3*---|

 Pre-Verse
|---------------------------------------------|
|---------------------------------------------|
|----4---3^---------------2-------------------|
|--2---2----------------2---2-5^--------------|
|-------------------0--------------------0----|
|-----------0-0-3-5---0----------0-0-3-5---0--|

 Verse                                x3
|----------------------------------------|----------------------------------|
|----------------------------------------|----------------------------------|
|-----9--9-----9--9-----9--9-------------|-----9--9-----9--9-----9-12----12-|
|-----8--8-----8--8-----8--8-------------|-----8--8-----8--8-----8----11----|
|-----7--7-----7--7-----7--7-------0-3-5-|-----7--7-----7--7-----7----------|
|-0-0------0-0------0-0------0-3-5-------|-0-0------0-0------0-0------------|
                             . . . . . .

-------------------------------------------------------------------|
-------------------------------------------------------------------|
-11----11-----9--9-----9--9-----9--4-------9--9-----9--9-----9--11-|
----10--------8--8-----8--8-----8--3-------8--8-----8--8-----8--10-|
--------------7--7-----7--7-----7--2-------7--7-----7--7-----7--9--|
----------0-0------0-0------0-0--------0-0------0-0------0-0-------|
[ Tab from: http://www.guitartabs.cc/tabs/j/jimmies_chicken_shack/sitting_with_the_dog_tab_ver_2.html ]
 Pre-Chorus
|------------------------------------------------------------------------------|
|-------5----------5----------5-8---8-7---7-------5----------5----------5------|
|-------3----------3----------3---6-----5---------3----------3----------3-3\---|
|-2p0h2-2--0h2p0h2-2--0h2p0h2-2-------------2p0h2-2--0h2p0h2-2--0h2p0h2-2-2\---|
|-------------------------------------------------------------------------1\---|
|------------------------------------------------------------------------------|

 Chorus
|-------------------------------------------------------------------|
|-------------------------------------------------------------------|
|-9--9--9-9-9-9-11--11--11-11-11-11-4--4--4-4-4-4-x-4-4-4-4-7-7-7-7-|
|-x--x--x-x-x-x-x---x---x--x--x--x--x--x--x-x-x-x-x-x-x-x-x-x-x-x-x-|
|-7--7--7-7-7-7-9---9---9--9--9--9--2--2--2-2-2-2-x-3-3-3-3-5-5-5-5-|
|-------------------------------------------------------------------|

 Play Intro

 Verse 2
|----------------------------------------------|-------------------------------|
|----------------------------------------------|-------------------------------|
|-----9--9-----9--9-----9--9-12----12-11----11-|-----9--9-----9--9-----9--4----|
|-----8--8-----8--8-----8--8----11-------10----|-----8--8-----8--8-----8--3----|
|-----7--7-----7--7-----7--7-------------------|-----7--7-----7--7-----7--2----|
|-0-0------0-0------0-0------------------------|-0-0------0-0------0-0------0--|

---------------------------|
---------------------------|
---9--9-----9--9-----9--11-|
---8--8-----8--8-----8--10-|
---7--7-----7--7-----7--9--|
-0------0-0------0-0-------|

 Play Pre-Chorus, Chorus

|-------------------------------------|--------------------|
|-------------------------------------|--------------------|
|-9----11----12-----------------------|-9----11----12---11-|
|-x----x-----x-----11-----------------|-x----x-----x----x--|
|-7----9-----10----x------------------|-7----9-----10---9--|
|------------------9------------------|--------------------|
 "here's to another...." (tremolo) x3

 Outro
|-------------------------------------------|
|-------------------------------------------|
|-9--9--9-9-9-9-11--11--11-11-11-11-4--4--4-|
|-x--x--x-x-x-x-x---x---x--x--x--x--x--x--x-|
|-7--7--7-7-7-7-9---9---9--9--9--9--2--2--2-|
|-------------------------------------------|
                                          ^lift whammy bar

any questions? andrewbiles@hotmail.com
___________________________________
Lyrics (www.seeklyrics.com):

Well I take each step very carefully
And I will make no decision now
And these are the right words to say
Are there all the right words to say
Just get up or be on your way
But you're sitting with the dog
I follow a backwards god
Sitting with the dog, I follow a backward god
Sitting with the dog, I follow a backward god
Sitting with the dog, I follow a backward god
I'm dumb and I'm ugly and I am uncreative
Dumb and ugly and uncreative
And these are the right words to say
Are these all the right words to say
Just get up and get out of my way
But you're sitting with the dog
I follow a backwards god
Sitting with the dog, I follow a backward god
Sitting with the dog, I follow a backward god
Sitting with the dog, I follow a backward god
Here's to another breath
For the hole in the sky (x3)
Here's to another breath
And we're sitting with the dog
Sitting with the dog
Like a bump upside a log
Yeah I'm sitting with the dog
Comments