Jimmies Chicken Shack - Outhouse Chords & Tabs

 

Outhouse Chords & Tabs

Jimmies Chicken Shack Chords & Tabs

Version: 2 Type: Bass Tab 0 ratings
1 star 2 stars 3 stars 4 stars 5 stars
comments

Outhouse Bass Tab

Outhouse - Jimmie's Chicken Shack
Bass Tab
Tabbed by Asbestos Man (asbestos_man_@hotmail.com)

You don't need a 5-string for this, I just wrote it this
way to confuse people like you.
This isn't a very bass orientated song. It's sometimes
hard to tell whether it's playing or not.
Basically the bass is so far down in the mix it doesn't
matter if you get it wrong.

Main Riff
  (wish i could...)  (...here, In this insect...)
G|-----------------|--------------------------------------|
D|-6---6---6---0---|-9---9---9---0---6---6---6---0--------|
A|-----------------|--------------------------------------|
E|---0---0---6---0-|---0---0---6---0---0---0---6---0------|
B|-----------------|--------------------------------------|
[ Tab from: http://www.guitartabs.cc/tabs/j/jimmies_chicken_shack/outhouse_btab_ver_2.html ]
It's possible that sometimes this is played. Maybe.
G|--------------------------------------------------------|
D|-6-x-6---6---0------------------------------------------|
A|--------------------------------------------------------|
E|-------0---6---0----------------------------------------|
B|--------------------------------------------------------|


Breakdown (Wish I could play outsiiide!)
G|--------------------------------------------------------|
D|-6---6---6---0---9---9---9---0---12---12---12---0-------|
A|--------------------------------------------------------|
E|---0---0---6---0---0---0---6---0----0----0----6---0-----|
B|--------------------------------------------------------|

G|------------------|-------------------------------------|
D|-7---6---6---0----|--0---0-6----------------------------|
A|------------------|-------------------------------------|
E|---0---0---6---0--|----6--------------------------------|
B|------------------|-------------------------------------|
                       Finish it off with this

PLEASE send feedback/corrections to asbestos_man_@hotmail.com
Comments