Jimmies Chicken Shack - Lazy Boy Dash Chords & Tabs

 

Lazy Boy Dash Chords & Tabs

Jimmies Chicken Shack Chords & Tabs

Version: 3 Type: Tab 0 ratings
1 star 2 stars 3 stars 4 stars 5 stars
comments

Lazy Boy Dash Tab

   
jimmies chicken shack  "Lazy Boy Dash"
     

intro:

e-----------------------------------------------------------------------------------------------
b-----------------------------------------------------------------------------------------------
g---------------10-10-10----10-12----12-12-12-12-13-12-10-10-10---------------------------------
d--/13-13-12-10----------13-------------------------------------13------------------------------
a-----------------------------------------------------------------------------------------------
e-----------------------------------------------------------------------------------------------

this is the main riff, the rest involves the same notes, you should be able to hear it.

Verse:

   Cmin     Cmin     Fmajb7#9  Gmajb7#9
e--3--------------------------------------------------------------------------------------------
b--4-----------------9---------11----------------------------------------------------------------
g--5-----------------8---------10-----------------------------------------------------------------
d--5-----------------7----------9---------------------------------------------------------------
a--3-----------------8---------10---------------------------------------------------------------
e-----------------------------------------------------------------------------------------------




Pre-Chorus: Distortion starts
[ Tab from: http://www.guitartabs.cc/tabs/j/jimmies_chicken_shack/lazy_boy_dash_tab_ver_3.html ]
   Cmin     AbMaj    Fmajb7#9  Gmajb7#9
e--3--------4-----------------------------------------------------------------------------------
b--4--------4-----------------------------------------------------------------------------------
g--5--------5-----------------------------------------------------------------------------------
d--5--------6-----------------------------------------------------------------------------------
a--3--------6-----------------------------------------------------------------------------------
e-----------4-----------------------------------------------------------------------------------



Chorus:

   Cmin     Cmin      Fmajb7#9  Gmajb7#9
e--3--------------------------------------------------------------------------------------------
b--4--------------------------------------------------------------------------------------------
g--5--------------------------------------------------------------------------------------------
d--5--------------------------------------------------------------------------------------------
a--3--------------------------------------------------------------------------------------------
e-----------------------------------------------------------------------------------------------


As you can see I haven't included any of the rythems, you should be able to hear that. In order
to really be able to play alot of this bands music you really need to  learn alot of the jazz 
style chords. Everything is hear to learn the song, good luck with it. 

Note: The stange chords I have tab hear for you are very predominate in rock music. play with 
      rock and all other forms of music. Play with them and get use to what it sounds like and
      you will be suprised where else you find it. Also try moving everything up one to your
      low E string, its called by a different name, but still sounds great as an accent chord.
       
        ----------    A popular Lit song uses this Chord, do you know what song?
        ----------
        ----6-----
        ----5-----
        ----4-----
        ----5-----
Comments