Jimmies Chicken Shack - Hole Chords & Tabs

 

Hole Chords & Tabs

Jimmies Chicken Shack Chords & Tabs

Version: 2 Type: Bass Tab 0 ratings
1 star 2 stars 3 stars 4 stars 5 stars
comments

Hole Bass Tab

Hole - Jimmie's Chicken Shack
Bass Tab
Tabbed by Asbestos Man (asbestos_man_@hotmail.com)

Intro + Break Down
G|--------------------------------------------------------|
D|--------------------------------------------------------|
A|--------------------------------------------------------|
E|-1-0-0-0--1-0-0-0--1-0-0-0-0----------------------------|
B|--------------------------------------------------------|
There's a 12\ slide on the E in there the second time.

[ Tab from: http://www.guitartabs.cc/tabs/j/jimmies_chicken_shack/hole_btab_ver_2.html ]
Main Riff
I dunno how to play the main riff. It confounds me.


Solo
G|-7h9----------------------------------------------------|
D|-------7h9---5h7---------4h5----------------------------|
A|-------------------5h7---------4h5----------------------|
E|-----x-----x-----x-----x-----x-----x-3h5-3~-(0)---------|
B|--------------------------------------------------------|
You can play those muted notes of the A string if you want.
I do.  That last 0 on the E isn't in there, but I like it.

PLEASE send any feedback/corrections (especially for the
main riff) to asbestos_man_@hotmail.com
Comments