Jimmies Chicken Shack - High Chords & Tabs

 

High Chords & Tabs

Jimmies Chicken Shack Chords & Tabs

Version: 1 Type: Tab 0 ratings
1 star 2 stars 3 stars 4 stars 5 stars
comments

High Tab

"High" by Jimmie's Chicken Shack
Tabbed by: DxL - MelvinTheLlama@aol.com - AIM: dxlogan187 - MSN: dxlogan316@hotmail.com

Tuned in D tuning - DADGBE

Intro/Main Riff
~~~~~~~~~~~~~~~
E--------------
B--------------
G--------------   On Intro, play with light distortion,
D--2---3-3-5-5-   but with the Main Riff play with heavy
A--2---3-3-5-5-
D--2---3-3-5-5-

Chorus
~~~~~~
E--0-----------
B--0-----------
G--0-----------   
D--2---3-3-5-5-          
A--2---3-3-5-5-
D--2---3-3-5-5-

Verse 1
~~~~~~~
E-------------------------------------------------
B-------------------------------------------------
G-------------------------------------------------
D-------------------------------------------------
A-------------------------------------------------
D--5---5-6---6-5---5-8---8-5---5-6---6-5---5-3--3-

Solo 1
~~~~~~
	* = strum fast until next note

E--11^-11^-12----12-14^-15-12-12-----15-12-12------------------------
B-------------15-----------------15-----------15-12-12---------------
G------------------------------------------------------14-12-12-9/12-
D--------------------------------------------------------------------
A--------------------------------------------------------------------
D--------------------------------------------------------------------

E----------------------------------14^-------------------
B---10--10-10-10-8---8-17*-16^-19^-----11^-12-10---------
G----9---9--9--9---9---16*-----------------------12-9-12-
D--------------------------------------------------------
A--------------------------------------------------------
D--------------------------------------------------------
   After this, go to the Main Riff and then the Chorus
[ Tab from: http://www.guitartabs.cc/tabs/j/jimmies_chicken_shack/high_tab.html ]
Verse 2
~~~~~~~
E-------------------
B--5--5-5^--5--5-8^-
G-------------------  This repeats
D-------------------
A-------------------
D-------------------

Solo 2
~~~~~~
E--------------------------------------------------
B--7-9-9^--10-9-7--7-6-6-7-6------7-9-9^-9^-7---7~-
G----------------------------7--9------------------
D--------------------------------------------------
A--------------------------------------------------
D--------------------------------------------------

Solo 3
~~~~~~
Okay, I tried and suceeded on Solo 1 & 2, now 3??? 

E------------------------------------------------------------------
B--10^-11-11-10---------10^-------------------10^-11---------------
G---------------12-9-12-----12-9----9-------7--------12-9-12-------
D--------------------------------12---9-7-9------------------2-0-2-
A------------------------------------------------------------------
D------------------------------------------------------------------

E-----------------------------------------------------------------------------
B-----------------------------10^--------10^----------------------------------
G--0--12-11-9-12-11-9-12-11-9----12-9-12-----12-9-12--12-12-12-12-12-12-12-12-
D-----------------------------------------------------------------------------
A-----------------------------------------------------------------------------
D-----------------------------------------------------------------------------

Verse 3
~~~~~~~
E---------------------------------------------------
B---------------------------------------------------
G---------------------------------------------------
D---------------------------------------------------
A---------------------------------------------------
D--5---5-6---6-5---5-8---8-5---5-6---6-5---5-12--12-

This repeats 3 times then goes to the Main Riff and ends


Comments