Jimmies Chicken Shack - High Chords & Tabs

 

High Chords & Tabs

Jimmies Chicken Shack Chords & Tabs

Version: 2 Type: Bass Tab 0 ratings
1 star 2 stars 3 stars 4 stars 5 stars
comments

High Bass Tab

High - Jimmie's Chicken Shack
Bass Tab
Tabbed by Asbestos Man (asbestos_man_@hotmail.com)

You can play this fine on a 4-string if you substitute that
3 on the B string for an open D, or if you played it in
Dropped D tuning.

Start with a slide on the E string, then...
Verse
G|--------------------------------------------------------|
D|--------------------------------------------------------|
A|-----------0--------------------------------------------|
E|-0---1-1-3----------------------------------------------|
B|--------------------------------------------------------|
The guitar is going D|-2--3-3-5-0-| in dropped D power chords,
but the bass is going to the 0 on the A. Listen hard.


Bridge 1
G|--------------------------------------------------------|
D|--------------------------------------------------------|
A|--------------------------------------------------------|
E|-3--3-4--4-3--3-6--6-3--3-4--4-3--3-1-------------------|
B|--------------------------------------------------------|

[ Tab from: http://www.guitartabs.cc/tabs/j/jimmies_chicken_shack/high_btab_ver_2.html ]
Slap Part (Kinda close)
   T   P     T   T
G|--------------------------------------------------------|
D|-----5h7p5----------------------------------------------|
A|-5h7-------5h7-7----------------------------------------|
E|--------------------------------------------------------|
B|--------------------------------------------------------|
Play three times

   T   T      T   T      T T
G|--------------------------------------------------------|
D|--------------------------------------------------------|
A|-7---0h2/5--7---0h2/5----7------------------------------|
E|-----------------------7--------------------------------|
B|--------------------------------------------------------|


Bridge 2
G|--------------------------------------------------------|
D|--------------------------------------------------------|
A|--------------------------------------------------------|
E|-1-1--1-2--1-1--1-4--1-1--1-2--1-1--1-0-----------------|
B|--------------------------------------------------------|


Bridge 3
G|--------------------------------------------------------|
D|------------------------------------0--0----------------|
A|--------------------------------------------------------|
E|-0--0-1--1-0--0-3--3-0--0-1--1-0--0---------------------|
B|--------------------------------------------------------|

G|--------------------------------------------------------|
D|--------------------------------------------------------|
A|--------------------------------------------------------|
E|-0--0-1--1-0--0-3--3-0--0-1--1-0--0---------------------|
B|------------------------------------3-------------------|

PLEASE send feedback/corrections (especially on the slap
part) to asbestos_man_@hotmail.com
Comments