Jimmies Chicken Shack - Dropping Anchor Chords & Tabs

 

Dropping Anchor Chords & Tabs

Jimmies Chicken Shack Chords & Tabs

Version: 2 Type: Tab 0 ratings
1 star 2 stars 3 stars 4 stars 5 stars
comments

Dropping Anchor Tab

Song: Dropping Anchor
Band: Jimmie's Chicken Shack
Album: Pushing the Salmonella Envelope
Transcribed By: Matthew Resnick


Drop D Tuning

Intro
~~~~~
E-----0-------------------------
B-------0------0----------------
G---------3--3---3----3-----4-3-  These repeats 4 times
D-----------------------4-2-----
A-------------------------------
D--2h4--------------------------

Verse 1/Chorus
~~~~~~~~~~~~~~
E----------------
B----------------
G----------------
D--2h4-4-2--5-10-
A--2h4-4-2--5-10-
D--2h4-4-2--5-10-

Verse 2
~~~~~~~
E--
B--------------------7h10h7------------------------7^--7/10/7-5-7-
G--6^--7-9--7-6-7-9---------9-7-9-11-9-7--6-7--6---6^--6/-9/6-4-6-
D--
A--
D--

Main Riff
~~~~~~~~~
E--------------
B--------------
G--------------  This repeats until the Verse 3,
D--2h4-x-x-x-2-  which is right before the Chorus
A--2h4-x-x-x-2-
D--2h4-x-x-x-2-
[ Tab from: http://www.guitartabs.cc/tabs/j/jimmies_chicken_shack/dropping_anchor_tab_ver_2.html ]
Verse 3
~~~~~~~
E----------------------------------
B----------------------------------
G---------------------------6-4-6^-
D--4--4--4-4----4--4--4-4-2--------
A--4--4--4-4----4--4--4-4-2--------
D--4--4--4-4----4--4--4-4-2--------

Chorus
~~~~~~
E----------------
B----------------
G----------------
D--2h4-4-2--5-10-
A--2h4-4-2--5-10-
D--2h4-4-2--5-10-

Verse 4
~~~~~~~
E------------------------------------
B--7--7---10-7--7---10-7---7^-7--5-7-
G--------------------------6^-6--4-6-  After this, go to the Main Riff
D------------------------------------  and then Verse 3 and to Verse 5
A------------------------------------
D------------------------------------

Verse 5
~~~~~~~
E----------------
B----------------
G----------------   After this go the the Main Riff
D--9--9-9-12--12-  and then here, it repeats a while
A--9--9-9-12--12-
D--9--9-9-12--12-

Verse 6
~~~~~~~
E----------------------------------
B----------------------------------
G---------------------------------- Go to the Chorus, the it ends
D--5-5-5-5-5-5-5-5-5-5-5-5-5-5-5-5-
A--5-5-5-5-5-5-5-5-5-5-5-5-5-5-5-5-
D--5-5-5-5-5-5-5-5-5-5-5-5-5-5-5-5-
Comments