Jimmies Chicken Shack - Do Right Chords & Tabs

 

Do Right Chords & Tabs

Jimmies Chicken Shack Chords & Tabs

Version: 1 Type: Tab 0 ratings
1 star 2 stars 3 stars 4 stars 5 stars
comments

Do Right Tab

Song:Do Right
Band:Jimmies Chicken Shack
Album:Bring Your Own Stereo
Transcribed by: Tyler Sartin


INTRO
E -------------------------
B ------7--8--7------------
G ---7--x--8--8------------
D ---8--7--8--8------------
A ---8--5--6--6------------
E ---6---------------------


Keep strumming those chords for pre-chorus and chorus


[ Tab from: http://www.guitartabs.cc/tabs/j/jimmies_chicken_shack/do_right_tab.html ]
LITTLE SOLO PART
E ----------------------------------10-----------------11
B-------------11------------7--7--------11--10---8--8------13--11
G ---7--7---------12--10----x--x-----------------8--8------------
D ---8--8-------------------7--7-----------------8--8------------
A ---8--8-------------------5--5-----------------6--6------------
E ---6--6--------------------------------------------------------

(Continued)
E -----------------------------------      Repeat twice
B ---7--7------------6--7------------
G ---8--8---6---8--------------------
D ---8--8----------------------------
A ---6--6----------------------------
E -----------------------------------




Bridge
E ------------------------------------------------------------
B ----------------7--7--7--7----5--5--5--5---8----------------
G ---4--4--4--4---x--x--x--x----x--x--x--x---8----------------
D ---5--5--5--5---7--7--7--7----5--5--5--5---8----------------
A ---5--5--5--5---5--5--5--5----3--3--3--3---6----------------
E ---3--3--3--3-----------------------------------------------


This is pretty much perfect. if you have any questions email me at 
tylers@ga.freei.net
Comments