Jimi Hendrix - Wild Thing Chords & Tabs

 

Wild Thing Chords & Tabs

Jimi Hendrix Chords & Tabs

Version: 3 Type: Tab 0 ratings
1 star 2 stars 3 stars 4 stars 5 stars
comments

Wild Thing Tab

Jimi Hendrix Wild Thing
1967 Monterey International Pop Festival

Intro:
e|---------2-2-------2-2-------2-2--------------------------------|
B|----2-2--3-3--5-5--3-3--2-2--3-3--5-5-5-5-5---------------------|
G|----2-2--2-2--4-4--2-2--2-2--2-2--4-4-4-4-4---------------------|
D|----2-2--0-0--2-2--0-0--2-2--0-0--2-2-2-2-2---------------------|
A|----0-0-------2-2-------0-0-------2-2-2-2-2---------------------|
E|----------------------------------------------------------------|
[ Tab from: http://www.guitartabs.cc/tabs/j/jimi_hendrix/wild_thing_tab_ver_3.html ]
Main Riff:
e|---------2-2-------2-2-------2-2-------2-2-------2-2-------2-2-----|
B|----2-2--3-3--5-5--3-3--2-2--3-3--5-5--3-3--2-2--3-3--5-5--3-3-----|
G|----2-2--2-2--4-4--2-2--2-2--2-2--4-4--2-2--2-2--2-2--4-4--2-2-----|
D|----2-2--0-0--2-2--0-0--2-2--0-0--2-2--0-0--2-2--0-0--2-2--0-0-----|
A|----0-0-------2-2-------0-0-------2-2-------0-0-------2-2----------|
E|-------------------------------------------------------------------|
  Wild thing     you make my..          you make every thing.. 
e|---------2-2-------------------------------------------------------------|
B|----2-2--3-3--5-5-5-5-5--------------------------------------------------|
G|----2-2--2-2--4-4-4-4-4--------------------------------------------------|
D|----2-2--0-0--2-2-2-2-2--------------------------------------------------|
A|----0-0-------2-2-2-2-2--------------------------------------------------|
E|-------------------------------------------------------------------------|
   Wild thing
Refrain
e|--------------------------------|
B|----0-2-0-2---------------------|
G|----0-2-0-2---------------------|x4
D|----0-2-0-2---------------------|
A|----0-0-0-0---------------------|
E|--------------------------------|
   Wild thing I think i love you     


Intro
Main Riff
Refrain
Main Riff
(Solo)
Rrefrain
Main Riff
Comments