Jimi Hendrix - Wild Thing Chords & Tabs

 

Wild Thing Chords & Tabs

Jimi Hendrix Chords & Tabs

Version: 2 Type: Bass Tab 0 ratings
1 star 2 stars 3 stars 4 stars 5 stars
comments

Wild Thing Bass Tab

                                Wild Thing
                            By: Jimmi Hendrix
                         Tabbed By: Peter Magestro
Intro 
G|--------------------------------|
D|---------0-0-0--2-2-2-2---2-2-2-|
A|--0--0--------------------------|
E|--------------------------------|

Wild thing you make my heart sing...
G|------------------------------|
D|------0-0-0--2--2--0-0-0------|  Repeat 3 times
A|0--0----------------------0--0|
E|------------------------------|

G|-------------------|
D|------0-0-0--------|
A|0--0---------------|
E|------------0-0-0-0|

Wild thing I think I love you...
G|-------|
D|-------|
A|--0---0|
E|-3--3--|

G|------------------------------|
D|------0-0-0--2--2--0-0-0------|   Repeat 5 times
A|0--0----------------------0--0|
E|------------------------------|

G|-------------------|
D|------0-0-0--------|
A|0--0---------------|
E|------------0-0-0-0|
[ Tab from: http://www.guitartabs.cc/tabs/j/jimi_hendrix/wild_thing_btab_ver_2.html ]
Instrumental Solo
G|------------------------------|
D|------0-0-0--2--2--0-0-0------|   Repeat 2 times
A|0--0----------------------0--0|
E|------------------------------|

G|-------------------|
D|------0-0-0--------|
A|0--0---------------|
E|------------0-0-0-0|

Wild thing I think you move me...
G|-------|
D|-------|
A|--0---0|
E|-3--3--|

G|-----------------------------|-----------------------------------------|
D|-----------------------------|-----------------------------------------|
A|-----------------------------|-----------------------------------------|
E|-0-0-0-0--0-0----0-0-0-0--0-0|---0-0--0-0---0-0--0---0-0-0-0-0--0--0--0|

Wild thing you make my heart sing...
G|------------------------------|
D|------0-0-0--2--2--0-0-0------|   Repeat 8 times
A|0--0----------------------0--0|
E|------------------------------|

G|------|
D|------|
A|-0--0-|
E|------|

Easy song to play and fun. Have Fun.
Comments