Jimi Hendrix - Weve Got To Live Together Chords & Tabs

 

Weve Got To Live Together Chords & Tabs

Jimi Hendrix Chords & Tabs

Version: 1 Type: Bass Tab 0 ratings
1 star 2 stars 3 stars 4 stars 5 stars
comments

Weve Got To Live Together Bass Tab

We've Got To Live Together - Jimi Hendrix

This is really rough because I don't have my bass in hand and I'm writing by faulty memory.

 beginning riff
G|------------|
D|----542-----|
A|46-----46-4-|
E|------------|
[ Tab from: http://www.guitartabs.cc/tabs/j/jimi_hendrix/weve_got_to_live_together_btab.html ]
Interlude
  a couple times
(second verse riff) then this a couple times
G|----------------|-----------------------------|
D|--------------4-|------4----------------------|
A|464--6--464-6---|464-6----4664--------466-46--|
E|---6-------6----|---6---------62-4-00---------|

  "home   home   home"
G|-----------------------------|
D|----------656--656--88888888-|
A|878--878---------------------|
E|-----------------------------|

 last half of song riff
G|8-8----------|
D|-----6-7-8---|
A|----6------6-|
E|-------------|

A tab by Achilles (blue_sincere@hotmail.com)
Comments