Jimi Hendrix - Voodoo Child Chords & Tabs

 

Voodoo Child Chords & Tabs

Jimi Hendrix Chords & Tabs

Version: 6 Type: Tab 0 ratings
1 star 2 stars 3 stars 4 stars 5 stars
comments

Voodoo Child Tab

Voodoo Chile by jimi hendrix
tab by rui barbosa

                                                                 
D#||------------------------------|------------------------------|
A#||------x-x-x-x-x-x-x-x--x-x-x--|--x---x-x--x--x-x-x-x-x-x-x-x-|
F#||------x-x-x-x-x-x-x-x--x-x-x--|--x---x-x--x--x-x-x-x-x-x-x-x-|
C#||------x-x-x-x-x-x-x-x--x-x-x--|--x---x-x--x--x-x-x-x-x-x-x-x-|
G#||------------------------------|------------------------------|
D#||------------------------------|------------------------------|


                                                                 
---------------------------------|------------------------------|
--x-x---x-x-x-x--x-x-x-x-x-x-x-x-|--x--x-x-x--x--x-x-x-x-x-x-x--|
--x-x---x-x-x-x--x-x-x-x-x-x-x-x-|--x--x-x-x--x--x-x-x-x-x-x-x--|
--x-x---x-x-x-x--x-x-x-x-x-x-x-x-|--x--x-x-x--x--x-x-x-x-x-x-x--|
---------------------------------|------------------------------|
---------------------------------|------------------------------|


                                                               
----------------------------------|---------------------------|
----------------------------------|-----------------------x-x-|
--7h9~---9-----7------------------|--9----7----9--9h7---------|
-----------7h9----5b-5--7-5-7-0---|---------9-----------------|
--------------------------------0-|---------------------------|
----------------------------------|---------------------------|


                                                          
---------------------------------|-----------------------|
---------0-----------------------|-----------------------|
--7h9----0-----7-----------------|--9----0-7b-9~---------|
-----------7h9----5--5--7--0h7-0-|-----------------------|
---------------------------------|-----------------------|
---------------------------------|-----------------------|


                                                                 
------------------------------------|---------------------------|
------------------------------------|-----------------------x-x-|
--9----0-----5b-5b---5--------------|--9----7----9--9h7---------|
---------7h9------------7h5h0-------|---------9-----------------|
------------------------------0h5h7-|---------------------------|
------------------------------------|---------------------------|


                                                             
--------------------------------|---------------------------|
--------------------------------|---------------10r---8-----|
--9----0-----7b-----------------|--9----9-7--9-----------9/-|
---------7h9----5b---5--7-------|---------------------------|
---------------------------5h7--|---------------------------|
--------------------------------|---------------------------|


                                                            
-------------------------------|---------------------------|
-------------------------------|--0------------------------|
--------2b2h0h1------------0-1-|--x----2r2h0---------------|
--------------2------------0-2-|--2----------2-------------|
---------------------------0-2-|--2----------2-------------|
--0--0-----------0-0-0--3b-----|--0---------------0--0--0--|


                                                               
---------------------------------|----------------------------|
---------------------------------|----------------------------|
--14b------14-14-12~-------------|---------2r2h0-------2r-----|
--14b---14-----------------------|-------2-------2------------|
-------------------------13-12/--|----------------------------|
---------------------------------|--0---------------0---------|


                                                  
----------------------|-----------------------0--|
----------------------|-------------------0-0-0--|
----------------2r2h0-|----------------1---------|
----------------------|-----------2----2---------|
----------------------|----------------2---------|
----------------------|--0---0-3b----------------|


                                                                 
------12----12--------------------------------------------------|
--15b----15b------15h12-------------------12-15b----------------|
---------------14-------14r14h12----12h14-------14--14h12-------|
---------------------------------14-----------------------14h12-|
----------------------------------------------------------------|
----------------------------------------------------------------|


                                                                
---------------------------------|-----------------------0-----|
---------------------------------|-----------------------------|
--14b--12-14b---12~--------------|--1-------------1------2r2h0-|
-------------12------------------|--2--------2----2----0-------|
---------------------------------|--2-------------2------------|
------------------------17/16/-0-|--0---0-3b---------0---------|


                                                               
-------------------3-3--------|-------------------------------|
-------------------3-3--------|--------------------3----------|
------------------------------|--------------------2--0-2r2h0-|
------------2-----------------|--0h2---------2-----2----------|
------------------------------|-------------------------------|
--0---0-3-0----0-0-----0-0-3b-|------0-0-3h0----0-------------|


                                                           
----------------------------|-----------------------------|
----------------------------|-----------------------------|
--1---------1---------------|--------0--------------------|
--2--2------2---------------|--0--2-----2---0--2h0--------|
--2---------2---------0--2--|-------------2---------------|
--0----0-3b-0--0--0-0-------|----------------------0-0-3b-|


                                                          
-----------------------------|------------------0-0~-----|
--------3--0-3---------------|---------------0--0-15~----|
--------------------2r-2r2h0-|--2---------1-----0--------|
--2--2-----------------------|------------2-----0--------|
--2--------------------------|------------2--------------|
--0--------0----0------------|-----0-0-3--0--------------|


                                                                  
------------------------0-------|------------------------0-------|
--------------------0-0-----3---|----------------------0---------|
-----1-------1--1-1-1-1-2r2h0---|--------------------1---2r2-0---|
-----2-------2--2-2-2-2-------2-|-------------2----------------2-|
-----2--------------------------|--------------------------------|
--0--0-0-3h0--------------------|--0--0-0-3h0----0-0-------------|


                                                                 
--------------------0-----0--|--5r5h3h0----5h3-5h3h5-5--3b------|
---------0-----0--0---3------|-----------------------------5----|
-----1-1-0--1--1--------3----|--5b--0---------------------------|
-----2-2-0--2--2-------------|----------------------------------|
-----2-2---------------------|----------------------------------|
--0--0-0-3-------------------|----------------------------------|


                                                               
-----------------------------|--------------------------------|
-----0-3h0-0-3b3h0-3h0-------|--------------------------------|
-----------------------2b-2b-|--2h0----------------1/-4-4-----|
-----------------------------|-------------0h2-----2----------|
-----------------------------|---------------------2/-5-5-5---|
-----------------------------|------0-0-3----0-0-0----------0-|


                                                             
------------------0--0------|-------------------------------|
-------------0----0--0------|-------------------------------|
-----1-1-----1----1--1--1-1-|--4----4---4---4-4----4---4----|
-----2-2-----2----2--2--2-2-|-------------------------------|
-----2-2-----2--------------|--5--5---5---5------5---5---5--|
--0--0-0-3h0----------------|-------------------------------|


                                                               
---------------------------------|------------------0---------|
---------------------------------|--------------0---0-----0---|
--2--2-----2---2-2-2---2---2-2---|-----1------1-1---1--2r-0---|
-------------------------------2-|--2--2------2-2---2-------2-|
--4----4-4---4-------4---4-------|--2--2------2---------------|
---------------------------------|--0--0--3h0-----------------|


                                                            
----------------------------|------------------------------|
-----3--------3--3------3---|-------------3----------------|
-----1--1-----1--1--1-1-1-1-|--3--3--3--3---3--3-3-3-3-3---|
-----2--2--2--2--2--2---2---|------------------------------|
--------------------2---2---|--3--3--3--3---3--3---3---3-4-|
--0-----0--0-----0----------|------------------------------|


                                                            
-----------------------------|-------------------0--0------|
-----------------------------|----x-x--0----0--0-0--0----0-|
--5--5--5--5--5--5-5-5-5-----|---------7----0--0-0--0----0-|
-----------------------------|---------x----5--5-7--5------|
--5--5--5--5--5--5-5-5-5-5/7-|---------7----0----------7---|
-----------------------------|--0-0-------0----------------|


                                                            
------------------------0--0--|----------------------------|
---------------------0--0--0--|--15b---15r-12-15b-15~------|
-----1-1-----1-1-----1--------|----------------------------|
-----2-2-----2-2-----2--------|----------------------------|
-----2-2-----2-2--------------|----------------------------|
--0--0-0-3h0-----0-0----------|----------------------------|


                                                 
------------------------------------------------|
--15r--12----12h15-12---------------------------|
----------14b---------14r14h12----12h14b----14r-|
-------------------------------14---------------|
------------------------------------------------|
------------------------------------------------|


                                                                               
----------------------------------------|-----------------------------12-15b--|
----------------------------------------|----------------------12-15b---------|
--12~-----------------------------------|-------------------------------------|
---------------14---14-14-12------------|--14-----------14--14----------------|
---------12h14---------------14/12-10---|--------12-14------------------------|
-------0------------------------------0-|------0----0-------------------------|


                                    
----------15b-15-12h14-12----12----|
--------------------------15----15b|
-----------------------------------|
-----------------------------------|
-----------------------------------|
-----------------------------------|


                                                                             
--12---------------------------------------------------12-------------------|
-----15h12----15h12-15h12-14-12h15h12-14h12----12-15b-----15h12-------------|
-----------14-------------------------------14------------------14r14h12----|
-------------------------------------------------------------------------12-|
----------------------------------------------------------------------------|
----------------------------------------------------------------------------|


                                                                    
-------------------------------|-----------------------------------|
-------------------------------|-----------------------------------|
-------2r2h0-2b------------2r2h|--0--------------------------------|
-----------------------0h2-----|-------------12h14---12------------|
-------------------------------|----2-------------------14/12------|
--0--0-------0--0-0-3b---------|------0/-15--------------------0-0-|


                                                                     
--------------------------------------------------------------------|
-----12-15-12----12-15h12----12-15h12----12-15h12-12-12-12-15h12----|
--14b---------14b---------14b---------14b------------------------14-|
--------------------------------------------------------------------|
--------------------------------------------------------------------|
--------------------------------------------------------------------|


                                                                
---------------------------------------------------------------|
-----12-12-12-12-15-12----12-12-15-----12h15h12-12h15h12----12-|
--14b------------------14b---------14b-------------------15----|
---------------------------------------------------------------|
---------------------------------------------------------------|
---------------------------------------------------------------|


                                                                              
------------------------------------------------|----------------15b---------|
--12h15h12----------15--15--15--15--15--15--15--|--15--15--------------------|
-----------14r14h12-14--14b-14--14b-16--16--16--|--16--16--14-12-------------|
------------------------------------------------|----------------------------|
------------------------------------------------|----------------------------|
------------------------------------------------|----------------------------|

[ Tab from: http://www.guitartabs.cc/tabs/j/jimi_hendrix/voodoo_child_tab_ver_6.html ]
                                                                
---------------------0-------0--|------------------------------|
-------------------0------------|------------------------------|
-----------------------2r2h0----|------------------1-1-2r2h0---|
-------------2---------------2--|-----2------0h2---2---------2-|
--------------------------------|------------------------------|
--0---0-3b-0----0---------------|--0----0-3h-0-----------------|


                                                                     
----------------------------------|---------------------------------|
---------------x-x-x--------------|---------------------------------|
-----------0-1-x-x-x-1------------|---------2r2h0-------------------|
-------------2-------2----0h2h0h2-|-----0h2-------2----2---2--------|
----------------------------------|---------------------------------|
--0---0-3b-----0-------3----------|--0---------------0---0---0-0-3--|


                                        
---------------------------------------|
---------------------------------------|
----------------------------2r---------|
--0h2h0h2-2------2----2---2----0h2h0h2-|
---------------------------------------|
------------0-3--0--0---0--------------|


                                                                         
----------------------------------------|----------------x-----x--------|
----------------------------------------|-----x----------x-----x--------|
-------------------------------2r-0-----|----------------x-----x--12----|
--2h0h2-2-0----0h2h0h2-2-2-2--------2h0-|-------------2-----x-----12h14-|
----------0-----------------------------|-------------------------------|
------------3----------------0----------|--0----0-3h0-------------------|


                                                        
----------------------------|--------------------------|
----------------------------|--------------------------|
----------------------------|-------------------2r-0---|
-----2-2----2------------2--|----------------2-------2-|
-------2-----------2--------|--------------------------|
--0--x-x-3h-0--0-----3h0----|------0--0--3h0-----------|


                                                                
----------------------------|--0-------------------------------|
----------------------------|----------------------------------|
----------------------------|--2r-2h0-------1-1----------------|
-----2-2-------2-----2----2-|---------2-----2-2----0h2h0-2h0-2-|
-----2-2--------------------|---------------2-2----------0---0-|
--0--------3h0----0-----0---|------------0------3b-------------|


                                                                      
--------------------4h0--------|-------------------------------------|
-----------0--0-----3---3------|-------------------------------------|
--2r-0h1---1--1h2/4---4-4--2h0-|-------------------------------------|
-------2---2--2----------------|------------2h0h2-2h0h2h0h2h0----0h2-|
--0----2-----------------------|-------------------------------------|
-------------------------------|--0---0-3h0-------------------3------|


                                                               
-------------------------------|------------------------------|
-------------------------------|------------------------------|
-------1-2r2h0-----------------|----------------------2r2r2h0-|
-----2-2-------2----2-------2--|-------------2----------------|
-----2-2------------2----------|------------------------------|
--0--------------0----0-3h0----|--0--0-0-3h0----0--0----------|


                                                                     
------------------------------|-------------------------------------|
------------------------------|-------------------------------------|
------------------------------|---------------------------2r2h0-----|
-------------2-----2-2-----2--|-----2-2----0h2h0h2----2h0-------2-2-|
-------------------2-2-----2--|-----2-2-----------------------------|
--0--0-0-3h0----0--0-0-3h0-0--|--0--0-0-3----------0----------------|


                                                             
-----------------------------|------------------------------|
-----------------------------|------------------------------|
--------------1--------------|--4------4------4------4--4-2-|
--------------2-----x--x--0--|------------------------------|
---------3--3-2--------------|--5--5-5-5--5-5-5--5-5-5--5-4-|
--0--0-0-3h-0----0--0--0--x--|-----0-0----0-0----0-0--------|


                                                               
---------------------------------|------0---------------------|
---------------------------------|------0--------------0------|
--2--2-2-2-2-2-2-2-2-2-2-2-2-2---|--------2r2h0--------1------|
---------------------------------|--2-----------2---2---------|
--4--4-4-4-4-4-4-4-4-4-4-4-4-4---|--2-------------2-2---------|
--0--0-0-0-0-0-0-0-0-0-0-0-0-0-0-|--0---------------0---------|


                                                       
---------------------------|--------------------------|
-----0--0--0--0--0--0--0-0-|--------------------------|
--1--1--1--1--1--1--1--1-1-|-----3--3--3-----3--3--3--|
--2--2--2--2--2--2--2--2-2-|--------------------------|
--2--2--2--2--2--2--2--2-2-|--3--3--3--3--3--3--3--3--|
--0--0--0--0--0--0--0--0-0-|--------------------------|


                                                          
----------------------------|----------------------------|
----------------------------|--------8----8--------------|
--5--5--5--5--5--5--5-5-----|--------7----7--------------|
----------------------------|--------x--x-x--------------|
--5--5--5--5--5--5--5-5-5/7-|--------7--7-7-------7--7---|
----------------------------|--0--0----------0-0--0--0-0-|


                                                                       
-------------------------|-----------------------12-------------------|
-----8-----8--8----------|--15r--15h12-15b-15b------15-12----15-12----|
-----7-----7--7----------|--------------------------------12-------14r|
-----x-----x--x----------|--------------------------------------------|
-----7-----7--7----7--5--|--------------------------------------------|
--0--0--0--0--0----------|--------------------------------------------|


                                       
--------------------------------------|
--------------------------------14h12-|
---14h12----12--14b---14b-12----14h12-|
---------14------------------14-------|
--------------------------------------|
--------------------------------------|


                                                  
-----12----12-15-12-15b--15-12-14h12----12-------|
--15b---15b--------------------------15b---15h12-|
-------------------------------------------------|
-------------------------------------------------|
-------------------------------------------------|
-------------------------------------------------|


                                                      
-----------------------------------------------------|
--15h12--------------------12-15-12-15~--12-12-12-12-|
--14----14r14h12----12h14b---------------------------|
-----------------14----------------------------------|
-----------------------------------------------------|
-----------------------------------------------------|


                                                          
-----------------------12--------------------------------|
--------------------15----15-12----15--------------------|
--14r14h12----12h14b------------14r---14b14h12----12h14--|
-----------14----------------------------------14--------|
---------------------------------------------------------|
---------------------------------------------------------|


                                                                        
------------------------------------------|----------------------------|
--15~------12-----------------------------|-------2--------------------|
--------14----14h12-14---12---------------|--2r-2h0----------1------1--|
----------------------------14-12---------|---------2-----2--2------2--|
----------------------------------14/12h0-|---------2-----2--2------x--|
------------------------------------------|------------0-----0--3h0----|


                                                           
--3---3-3--3---3-3--3--3---|--3-3--3-3--3-----------------|
--3---3-3--3---3-3--3--3---|--3-3--3-3--3-----------------|
--x---x-x--x---x-x--x--x---|--x-x--x-x--x-----------------|
--2---2-2--2---2-2--2--2---|--2-2--2-2--2---2-2-----------|
---------------------------|--------------------------0---|
-------------------------0-|--------------------0-0-3---0-|


                                                     
--3---3-3---3--------------|------------------------|
--3---3-3---3--------------|------3-----------------|
--x---x-x---x----2r--0---1-|------1----------0------|
--2---2-2---2----------2---|------------------------|
----------0----------------|------------------------|
---------------------------|--0-----0--0h3----------|


                            
--3---3----3----3-3-4/-----|
--3---3----3h-0-3-3-3/-----|
--x---x-----------2-4/-----|
--2---2--------------------|
---------------------------|
--------0------------------|


                                                                           
--16-16-16-16-16-16-16-16-16-16-16-16-16-16-16-16-16-16-16-16-16-16-16-16/|
--15-15-15-15-15-15-15-15-15-15-15-15-15-15-15-15-15-15-15-15-15-15-15-15/|
--16-16-16-16-16-16-16-16-16-16-16-16-16-16-16-16-16-16-16-16-16-16-16-16/|
--------------------------------------------------------------------------|
--------------------------------------------------------------------------|
--------------------------------------------------------------------------|


                                                           
--16-16-16-16-16-16-16-16-16-16-16-16-16-16-16-16---------|
--15-15-15-15-15-15-15-15-15-15-15-15-15-15-15-15/-0/-15--|
--16-16-16-16-16-16-16-16-16-16-16-16-16-16-16-16---------|
----------------------------------------------------------|
----------------------------------------------------------|
----------------------------------------------------------|


                                                         
----------------------------|---------------------------|
----------------------------|-----------------------12--|
--1----2r2h0------1---------|-------2r2h0---------------|
--2----------2----2-----2-2-|-------------2-------------|
--2---------------------2-2-|---------------------------|
--0------------------4--0-0-|--0-------------0----------|


                                                                          
-----12b--12----12------------------------|------------------------------|
--15---------15----12-15----12------------|--------15--------------------|
-------------------------14----12h14-14r--|--------------14--12-14-12----|
------------------------------------------|---------------------------12/|
------------------------------------------|------------------------------|
------------------------------------------|------------------------------|


                                                             
--------------------------------|-----------3---3-----------|
--------------------------------|--3---3-3--3---3-----------|
-------2r2h0--------1-1---------|--2---2-2--2---2-2r-2h0----|
-------------2----2-2-2-----0-2-|--2---2-2--2---2--------2--|
------------------2-2-2-----0-2-|---------------------------|
--0---------------0-0-0-3h0-----|---------------------------|


                                                                           
--3---3-3--3----------|--3------3----------|---------0--0----------0------|
--3---3-3--3----------|--3------3----------|--3-3--3-0--0----0-0-0-0--0---|
--2---2-2--2----------|--2------2----------|------------14b--------14-----|
--2---2-2--2----------|--2------2----------|------------------------------|
----------------------|--------------------|------------------------------|
----------------------|--------------------|------------------------------|


                                                                
------0------0------0------0--|-----0----0----0----0--19b------|
------0------0------0------0--|-----0----0----0----0-----------|
--14b----14b----14b----14b----|--14b--14b--14b--14b------------|
------------------------------|--------------------------------|
------------------------------|--------------------------------|
------------------------------|--------------------------------|


                                                                                
-------------------------|--------------------------|----------------0---------|
-------------------------|--------------------------|----------------0--0--x---|
-------------------------|--2r-2h0-----------1--1-1-|--2r-0-------------1--x-0-|
--2----------2-----------|---------2---------2--2-2-|--------2----------2--x---|
--2----------------------|-------------------2--2-2-|--------------------------|
-----0-0-3-4----0--------|------------0-------------|-----------0--------------|


                                                                      
----------------0------0--|-------------------|----------------------|
----------------0--0-0-0--|-------------------|----------------------|
--2r--0------------1-1-1--|--2r---------------|----------------2r2h0-|
--------2----------2-2-2--|-------------------|----------------------|
--------------------------|-------------------|----------------------|
-----------0--------------|-------------------|----------------------|


                                                          
--------------------3------------|-----------------------|
--------0-----------3-0h3h0h3-0--|-----------------------|
--------0---------------------0--|--2r-2h0----1----------|
--------0--2------------------0--|---------2--2----------|
------------------------------0--|------------2----------|
--0---0-3-----0---0-----------0--|-----------------------|


                                               
------------------------|--------------------||
------------------------|--x--x--------------||
--2r-2h0-1--------------|--x--x--------------||
---------2-------2------|--x--x--------------||
------------------------|--------------------||
------------0-----------|--------------------||
Comments