Jimi Hendrix - Three Little Bears Chords & Tabs

 

Three Little Bears Chords & Tabs

Jimi Hendrix Chords & Tabs

Version: 1 Type: Tab 0 ratings
1 star 2 stars 3 stars 4 stars 5 stars
comments

Three Little Bears Tab

This is a really interesting song and its pretty funny plus its really easy to play!!!

~=ring/let it ring

the part were its 3310 10is 1-0/not ten

e|---0~~~---5565---3~~---3310---------------|
B|----------------------------6-------------|
G|------------------------------------------|
D|------------------------------------------|
A|------------------------------------------|
E|------------------------------------------|

[ Tab from: http://www.guitartabs.cc/tabs/j/jimi_hendrix/three_little_bears_tab.html ]
e|---0~~~---5565---3~~---3310---------------|
B|----------------------------7-------------|
G|------------------------------------------|
D|------------------------------------------|
A|------------------------------------------|
E|------------------------------------------|


e|---0~~~---5565---3~~---3310---------------|
B|---0~~~---5565---3~~---3310--4------------|
G|-----------------------------4------------|
D|------------------------------------------|
A|------------------------------------------|
E|------------------------------------------|
Comments