Jimi Hendrix - Third Stone From The Sun Chords & Tabs

 

Third Stone From The Sun Chords & Tabs

Jimi Hendrix Chords & Tabs

Version: 2 Type: Tab 0 ratings
1 star 2 stars 3 stars 4 stars 5 stars
comments

Third Stone From The Sun Tab

"Third Stone from the Sun" - Jimi Hendrix
xy789xy richard tandy

Opening Chords:

---0-------0---------
--12~-----10~--------
---9~------7~--------
--11~------9~--------
--11~------9~--------
---0-----------------


Alternate these chords as on the record.
Follow with this riff repeating.

                etc
--------------------------
--------------------------
--------------------------
---7----7----7------------
--5-5--5-5--5-5-----------
-0----0----0--------------

                    
-7-----7---5-5-------
-7h8-7-7h8-5-5h7-5-5-
-----------------7-6-
---------------------
---------------------
---------------------

then repeat the opening chords again, then...

-0-0-0-0----------0--0-0-0-0-0----------------------
-0-0-0-0--0-0-0-0-0--0-0-0-0-0---3-3/5-3------------
-4-2-0-2--4-5-4-2-4--4-2-0-2-2/4---------4\2-0------
-----------------------------------------------2-0--
----------------------------------------------------
----------------------------------------------------
[ Tab from: http://www.guitartabs.cc/tabs/j/jimi_hendrix/third_stone_from_the_sun_tab_ver_2.html ]
The Main Melody: Use whammy.
   2x
||-----------------------------------------------------||
||-----------------------------------------------------||
||-/13~--13-11-9/11-6/9---7-6-4/6--------------9/11\9~-||
||--------------------------------6/9~--9/11\9---------||
||-/11~--11-9--7/9--4/7---5-4-2/4--------------7/9\7~--||
||--0-----------------------------4/7~--7/9\7----------||


then

-0-0-0-0----------0---0-0-0-0-----0-------------------------
-0-0-0-0--0-0-0-0-0---0-0-0-0-----2------------12--12-12----
-4-2-0-2--4-5-4-2-4---4-2-0-2--2/4------12-----12--12-12-12-
------------------------------------/14-12--14-12--12-12-14-
------------------------------------/14-----14--------------
------------------------------------------------------------

Little solo:

----------------------------------12---------------------------------------
-15b(17)---15b(17)-15-12-------12-12-15p12---12------12--------------------
------------------------14b(16)-----------14-14b(16)-14b(15)-14b(15)-12----
------------------------------------------------------------------------14-
---------------------------------------------------------------------------
---------------------------------------------------------------------------

                          "Strange beautiful...."                 
----------------------------------------------
---------------x---x------7-7-7-7-7-7-7-7-9-7-
---------12----x---x------7-7-7-7-7-7-7-7-9-7- repeat
----12-14--14--x---x------7-7-7-7-7-7-7-7-9-7-
-/14-----------x---x------7-7-7-7-7-7-7-7-7-7-
----------------------------------------------

Most of the space out section is just whammying the open e string with feedback

At the end the Main melody re-appears again.
Comments