Jimi Hendrix - The Wind Cries Mary Chords & Tabs

 

The Wind Cries Mary Chords & Tabs

Jimi Hendrix Chords & Tabs

Version: 1 Type: Bass Tab 0 ratings
1 star 2 stars 3 stars 4 stars 5 stars
comments

The Wind Cries Mary Bass Tab

The Wind Cries Mary - Jimi Hendrix

*notes without spacing between them are most often meant to 
  be played as half notes (not eighth notes)
*the notes on the G string of the intro, end of verse, and outro are above the 9th fret

   intro (x2)   
G|---------10/11-12/13-14--|
D|1-/2-/3------------------|
A|-------------------------|
E|-------------------------|

 verse
|-----------------------------------------------------------3----3333---------3----3333--------
|----------23---33--3----------23---33--3----------23---33---5555----1-/2-/3---5555----1-/2-/3-
|3--321--05----3-----3--321--05----3-----3--321--05----3---------------------------------------
|----------------------------------------------------------------------------------------------

-10/11-12/13-14--|
-----------------|
-----------------|
-----------------|
[ Tab from: http://www.guitartabs.cc/tabs/j/jimi_hendrix/the_wind_cries_mary_btab.html ]
  solo
G|---------------------------------------------------------------
D|33331111----4------3-33331111----4------3-33331111----4------3-
A|--------1146-4---35-5--------1146-4---35-5--------1146-4---35-5
E|--------------44-------------------44-------------------44-----

---------------------------------------------|
55555555----------------333333333333333------|
--------1111111144444444---------------0123--|
---------------------------------------------|

   end of last verse/outro
G|---------10/11-12/13-14-----------10/11-12/13-14-----------10/11-12/13-14--1---1-3---|
D|1-/2-/3------------------1-2-2-3------------------1-/2-/3--------------------1-------|
A|-------------------------------------------------------------------------------------|
E|-------------------------------------------------------------------------------------|

tabbed by Achilles (blue_sincere@hotmail.com)
Comments