Jimi Hendrix - Star Spangled Banner Chords & Tabs

 

Star Spangled Banner Chords & Tabs

Jimi Hendrix Chords & Tabs

Version: 3 Type: Tab 0 ratings
1 star 2 stars 3 stars 4 stars 5 stars
comments

Star Spangled Banner Tab

ok this is the woodstock version without the little fills, the last note
before the lines means u hold it. ok thats it bye


----------------------|---------------------|--------------------|-----|
----------------------|---15-13-------------|--------15-13-------|-----|
-----------------15~~-|---------15----------|--------------15-14~|-----|
--15-12----12-15------|------------12-14-15~|-15-15--------------|-----|
--------13------------|---------------------|--------------------|-----|
----------------------|---------------------|--------------------|-----|

---------------------------------|------------------|------------------|
---------------------------------|-15-13------------|---------15-13----|
-12-14-15-15----------------15~--|-------15---------|---------------15-|
------------15-12----12-15-------|---------12-14-15~|-15-15------------|
------------------13-------------|------------------|------------------|
---------------------------------|------------------|------------------|
[ Tab from: http://www.guitartabs.cc/tabs/j/jimi_hendrix/star_spangled_banner_tab_ver_3.html ]
-------------------------------------------|---------------------|-----|
----------------------------------16-18-18~|---16-15-13-15-16-16~|-----|
14-12-14-15-15-----------15-15-15----------|---------------------|-----|
---------------15-12-----------------------|---------------------|-----|
---------------------13--------------------|---------------------|-----|
-------------------------------------------|---------------------|-----|

-------------------|-----------------|-------------------|-------------|
-16-15-13-15-16-16~|-16-15-13--------|-------------------|-------------|
-------------------|-----------15-14~|-12-14-15----------|----15-15-15-|
-------------------|-----------------|----------12-14-15~|-15----------|
-------------------|-----------------|-------------------|-------------|
-------------------|-----------------|-------------------|-------------|

------------------------------------------------------------|----------|
-------------13-16-15-13-------------------13-15-16-18~~~~~-|----------|
-14-12-12-12-------------15-15-14-------15------------------|----------|
----------------------------------15-15---------------------|----------|
------------------------------------------------------------|----------|
------------------------------------------------------------|----------|

 -------------------------||
 ----13-15-16-13----------||
 -15-------------15~~~~~~-||
 -------------------------||
 -------------------------||
 -------------------------||
Comments