Jimi Hendrix - Red House Chords & Tabs

 

Red House Chords & Tabs

Jimi Hendrix Chords & Tabs

Version: 1 Type: Bass Tab 0 ratings
1 star 2 stars 3 stars 4 stars 5 stars
comments

Red House Bass Tab

Red House - Jimi Hendrix

*sorry if it's difficult to differentiate between single and double
digit numbers on this tab, but I'm sure the die-hard Hendrix fan will
find a way.

  intro
G|------------------|3-3---3-36-53-3---3-36-810-1012-1213-1312-1210-1012-1210-1012-10--------
D|------------------|---3-5---------3-5-------------------------------------------------3-1--
A|------------------|------------------------------------------------------------------------
E|6-6-6-6-6-6-6-6-6-|----------------------------------------------------------------1-1---1-

----3-3---3-36-810-1012-1210-1012-1210-1210--1210---|
-3-1---3-5---------------------------------12-------|
----------------------------------------------------|
1---------------------------------------------------|

  verse (will work for all verses)
G|10-1012-1213-1312-103-3---3-36-510-1012-1210-1012-1210-1012-1213-1312-103-3---3
D|-----------------------3-5-------------------------------------------------3-5-
A|-------------------------------------------------------------------------------
E|-------------------------------------------------------------------------------
[ Tab from: http://www.guitartabs.cc/tabs/j/jimi_hendrix/red_house_btab.html ]
-36-53-3---3-36-810-1012-1210-1012-1210-1012-1210-1012-10--------------3---3-36-510-1012-1210
--------3-5-------------------------------------------------3-3---3-31--3-5------------------
---------------------------------------------------------------------------------------------
---------------------------------------------------------1-1---1-1---------------------------

-1012-1210-1210--1210---|
---------------12-------|
------------------------|
------------------------|

  solo (much like the verse)
G|10-1012-1213-1312-103-3---3-365410-1012-1213-1312-1210-1012-1213-1312-103-3---3
D|-----------------------3-5-------------------------------------------------3-5-
A|-------------------------------------------------------------------------------
E|-------------------------------------------------------------------------------

-36543-3---3-36-810-1012-1210-1012-1210-1012-1210-1012-10--------------3---3-365410-1012-1210
--------3-5-------------------------------------------------3-3---3-31--3-5------------------
---------------------------------------------------------------------------------------------
---------------------------------------------------------1-1---1-1---------------------------

-1012-1210-1210--1210---|
---------------12-------|
------------------------|
------------------------|

tabbed by Achilles (blue_sincere@hotmail.com)
Comments