Jimi Hendrix - Purple Haze Chords & Tabs

 

Purple Haze Chords & Tabs

Jimi Hendrix Chords & Tabs

Version: 6 Type: Tab 0 ratings
1 star 2 stars 3 stars 4 stars 5 stars
comments

Purple Haze Tab

   
www.mbrjk.url.net     DownSwing's Official Site



Intro
e|--------------------------------------------------------------------------|
B|--------------------------------------------------------------------------|
G|--------------------------------12----------------------------------------|
D|-----8-----8------%2---------12-----------------------------%2------------|
A|--7--7--7--7----------12/14---------------10------------------------------|
E|--6-----6---------------------------12~------10--0--10h12-----------------|
[ Tab from: http://www.guitartabs.cc/tabs/j/jimi_hendrix/purple_haze_tab_ver_6.html ]
e|--------------------------------------------------------------------------|
B|--------------------------------------------------------------------------|
G|--------------------------------------------------------------------------|
D|--------------------------------------------------------------------------|
A|-----10--12--12b-12--10~----10----------10-12-12b-12-10--12-10-12-12-12-14|
E|--12---------------------10----0--3--12-----------------------------------|
Verse
   E7#9            G            A
e|--0--------------3----------------5---------------------------------------|
B|--8--------------3----------------5---------------------------------------|
G|--7--------------4----------------6------------%4-------------------------|
D|--6--------------5----------------7---------------------------------------|
A|--7--------------5----------------7---------------------------------------|
E|--0--------------3----------------5---------------------------------------|
 dduddud         ddud             uddud               
							
															
													
Comments