Jimi Hendrix - Purple Haze Chords & Tabs

 

Purple Haze Chords & Tabs

Jimi Hendrix Chords & Tabs

Version: 3 Type: Tab 0 ratings
1 star 2 stars 3 stars 4 stars 5 stars
comments

Purple Haze Tab

Here you go This is a great song
x/y= slide   xpy= pull off   xb= bend
Intro
e|--------------------------------------------------------|
B|-------8-----------------------8------------------------|
G|-----7-----------------------7--------------------------|
D|-7/9-----7--7/5p0--------7/9-----7--7/5p0---------------|
A|--------------------5/7---------------------5/7---------|
E|------------------0-----------------------0-------------|

e|--------------------------------------------------------|
B|--------------------------------------------------------|
G|----------------------------------------------7-7-9-----|
D|-----5-7-7b-5--5------------5-7b-5/7--5p0-7/9-----------|
A|-5/7-------------0------5/7-----------------------------|
E|-------------------0-3------------------------------12/0|
[ Tab from: http://www.guitartabs.cc/tabs/j/jimi_hendrix/purple_haze_tab_ver_3.html ]
verse/chours thing
e|----------------3-3-----5-5---|
B|----8-8-888--xx-3-3--xx-5-5---|
G|----7-7-777--xx-4-4--xx-6-6---|
D|----6-6-666--xx-5-5--xx-7-7---|  This goes on for 4 times
A|----7-7-777--xx-5-5--xx-7-7---|  I think
E|-0--------------3-3-----5-5---|
"s'cuse me while I kiss the sky"
Then this part
e|------------------------------|
B|----------------8--------8----|
G|-5/7-5-3------7--------7------|
D|----------5/7------5/7--------|
A|-7/9-7-5----------------------|
E|------------------------------|

Then back to the verse/chours
"Whatever it is that girl put a spell on me"
e|--------------------------------------------------|
B|----------------8--------8---------12b--------12b-|
G|-5/7-5-3------7--------7---------9----------9-----|
D|----------5/7------5/7------9/11-------9/11-------|
A|-7/9-7-5------------------------------------------|
E|--------------------------------------------------|

e|----------15-----------15--|
B|---------------------------|
G|-------12-----------12-----|
D|-12/14--------12/14--------|
A|---------------------------|
E|---------------------------|

I dont have the solo yet but hopefully I will
After the solo it goes back to the verse/chours part
And at the end of the song he just picks 15 bent up on the B string a whole bunch of times.
Well I hope you like this!
Comments