Jimi Hendrix - Purple Haze Chords & Tabs

 

Purple Haze Chords & Tabs

Jimi Hendrix Chords & Tabs

Version: 3 Type: Bass Tab 0 ratings
1 star 2 stars 3 stars 4 stars 5 stars
comments

Purple Haze Bass Tab

purple haze-jimi hendrix
tab by Corpsegrinder



intro
|---15----15----15----15|
|---14----14----14----14|
|13----13----13----13---|
|12----12----12----12---|

1st figure
|-9--9--9-7-9---9--9--9-7-9---9--9--9-7-9---|
|-------------------------------------------|
|-------------------------------------------|
|-------------------------------------------|
repeat this until... listen to the song a couple of times and you'll know when.

2nd figure
|--------------------------------|
|--------------------------------|
|7--7--7-5-7-------------5-6-7*--|
|-------------3-3-3--5-5---------|
[ Tab from: http://www.guitartabs.cc/tabs/j/jimi_hendrix/purple_haze_btab_ver_3.html ]
repeat this until the solo
*note: this parts' frets 6 and 7 should only be hammered on

solo bridge
|-----------------------------------------------------------|
|-----------------------------------------------------------|
|------------------------------------5--5--5--5--7--7--7--7-|
|3--3--3--3--5--5--5--5--7--7--7--7-------------------------|

solo
|---------------------------------|
|---------------------------------|
|7-7-7--5-7-7-7--9-9-9-9--7-7-7-7-|
|---------------------------------|
repeat figure during all the solo, then, play the first figure, until taking
back "solo bridge" and "solo"

this is my first tab, but it's definitely right. please grade and e-mail any
comments or mistakes to elanarquistamexicano@yahoo.com
Comments