Jimi Hendrix - Purple Haze Chords & Tabs

 

Purple Haze Chords & Tabs

Jimi Hendrix Chords & Tabs

Version: 2 Type: Bass Tab 0 ratings
1 star 2 stars 3 stars 4 stars 5 stars
comments

Purple Haze Bass Tab

Jimi Hendrix - Purple Haze

Intro:
|---9---9---9---9-|
|-----------------|
|-7---7---7---7---|
|-----------------| x5

Verse One:
|------------------------------------|           |---------------------|
|------------------------------------|           |---------------------|
|-7-7-7-7-7-7-7/-------------4-5-(7)-|           |-9-7-5--7------7-----|
|----------------3-3-3-3-5-5---------| x5        |----------5-5----5-5-| x1
[after twice, vocals begin.]
Purple Haze all in my brain
Lately things don't seem the same
Acting funny but I don't know why 
Excuse me while i kiss the sky
[ Tab from: http://www.guitartabs.cc/tabs/j/jimi_hendrix/purple_haze_btab_ver_2.html ]
Verse Two:
|------------------------------------|           |---------------------|
|------------------------------------|           |---------------------|
|-7-7-7-7-7-7-7/-------------4-5-(7)-|           |-9-7-5--7------7-----|
|----------------3-3-3-3-5-5---------| x3        |----------5-5----5-5-| x1
      Purple haze all around
don't know if I'm coming up or down
am i happy or in misery
What ever it is that girl put a spell on me
 
Solo:                                                                            
|-------------------------------------------------|
|7-7-7-7-7-7-7-7-9-9-9-9-9-9-9-9------------------|
|--------------------------------5-5-5-5-5-5-5-5/-|
|-------------------------------------------------| x1
                                                                              
|---------------------------------|
|---------------------------------|
|-7-7-7-7-7-7-7-7-9-9-9-9-5-5-5-5-|
|---------------------------------| x4
                                                                              
Intro riff:
|---9---9---9---9-|
|-----------------|
|-7---7---7---7---|
|-----------------| x4
HELP ME ... 
HELP ME oh i don't know

Verse Three:
|------------------------------------|           |---------------------|
|------------------------------------|           |---------------------|
|-7-7-7-7-7-7-7/-------------4-5-(7)-|           |-9-7-5--7------7-----|
|----------------3-3-3-3-5-5---------| x3        |----------5-5----5-5-| x1
Purple haze all in my eyes
don't know if it's day or night
you've got me blowin',blowin' my mind
is it tomorrow or just the end of time
                                                                            
Solo riff:                                                                            
|-------------------------------------------------|
|7-7-7-7-7-7-7-7-9-9-9-9-9-9-9-9------------------|
|--------------------------------5-5-5-5-5-5-5-5/-|
|-------------------------------------------------| x1
                                                                              
|---------------------------------|
|---------------------------------|
|-7-7-7-7-7-7-7-7-9-9-9-9-5-5-5-5-|
|---------------------------------| x4
who knows?
help me
Oh yeah
come on know
tell me
tell me
Comments