Jimi Hendrix - Machine Gun Chords & Tabs

 

Machine Gun Chords & Tabs

Jimi Hendrix Chords & Tabs

Version: 2 Type: Tab 0 ratings
1 star 2 stars 3 stars 4 stars 5 stars
comments

Machine Gun Tab

This is only the intro of the song, and it is not exact, but pretty close. I was token today and came up 
it. Remember to tune your guitar down half a step, it souds alot better =P

e:-------------------------------------------------------|
B:-------------------------------------------------------|
G:-------------------------7---5~~~--8\7--5--------------|
D:--5h7--5------5--7---------------------------7---------|
A:-------------7-----------------------------------------|
E:-------------------------------------------------------|

e:-------------------------------------------------------|
B:------------------------------------------8---5--------|
G:----------------------------7---5~~-------------8--7---|
D:--5h7--5-------------5---------------------------------|
A:-------------7--5--7-----------------------------------|
E:-------------------------------------------------------|


e:-------------------------------------------------------|
B:-------------------------------------------------------|
G:--5---5h7--5h7~~--5------------------------------------|
D:---------------------------5------5-----5h7--5---------|
A:-------------------------------7---------------------7-|
E:-------------------------------------------------------|

[ Tab from: http://www.guitartabs.cc/tabs/j/jimi_hendrix/machine_gun_tab_ver_2.html ]
e:-------------------------------------------------------|
B:-------------------------------------------------------|
G:-------------7--5~~---------------8--7--5--------------|
D:---5---7----------------75757---------------7----------|
A:-----------------------------------------------------5-|
E:-------------------------------------------------------|


e:-------------------------------------------------------|
B:-------------------------------------------------------|
G:-------------------------8--7--5-----------------------|
D:-----5---7-5-7-5-7--------------5~~~~------------------|
A:--7----------------------------------------------------|
E:-------------------------------------------------------|


e:-------------------------------------------------------|
B:------------------------8~~~---5-----------------------|
G:--------------------------------------8p5h7--5---------|
D:--7-5-7-5-7---------------------------------------7----|
A:-------------------------------------------------------|
E:-------------------------------------------------------|


e:-------------------------------------------------------|
B:-------------------------------------------------------|
G:--------------------8--7--5----------------------------|
D:--7-5-7-5-7-----------------5~~~-----------------------|
A:-------------------------------------------------------|
E:-------------------------------------------------------|

By the way, this is my first tab, and I know the time frame is a little screwed up. I don't think you'll 
too hard of a time figuring it out if you've ever heard the song =)


                        ..::Rock On!::..
                Tabbed by Bryan 'Token' Kael

            ~>"Knowlege speaks, wisdom Listens"<~
                         -Jimi Hendrix
Comments