Jimi Hendrix - Machine Gun Chords & Tabs

 

Machine Gun Chords & Tabs

Jimi Hendrix Chords & Tabs

Version: 1 Type: Bass Tab 0 ratings
1 star 2 stars 3 stars 4 stars 5 stars
comments

Machine Gun Bass Tab

Machine Gun - Jimi Hendrix

these riffs, along with improvisation, can be found repeated throughout the song  
[ Tab from: http://www.guitartabs.cc/tabs/j/jimi_hendrix/machine_gun_btab.html ]
G|---------------------|---------------------|
D|-----------8-7-6-4---|-----------/8-6-4----|
A|6-4-6-4-6----------6-|6-4-6-4-6---------4--|
E|---------------------|---------------------|

G|8-6-8-6-8------------|-----6-8--------|--------------------|
D|-----------8-7-6-4---|------------4-6-|------------------4-|
A|-------------------6-|6--6------6-----|6-4-6-4-6-------4---|
E|---------------------|----------------|-----------6--6-----|

tabbed by Achilles (blue_sincere@hotmail.com)
Comments