Jimi Hendrix - Little Wing Chords & Tabs

 

Little Wing Chords & Tabs

Jimi Hendrix Chords & Tabs

Version: 5 Type: Tab 0 ratings
1 star 2 stars 3 stars 4 stars 5 stars
comments

Little Wing Tab

   
-------------------------------------------------------------------------------
			     Little wing - JIMI HENDRIX
-------------------------------------------------------------------------------
Tabbed by: Lirikal	
Email:lirikal2000@hotmail.com

Tuning:E A D G B E


| b    bend full  	| T    tapping      
| b(X) ben to note	| T*   tapping fret hand	
| b%   bend 1/4		| NH   Natural harmonic
|(X)   ghost note	| x    Mute note
| /    slide up		| PM   Palm mute
| \    slide down	| RP   Repick
| h    hammer-on	| ~    vibrato
| p    pull-off


Intro 
                                         
e:---12\-------------------------------3h5-3-----------------------------|
B:---12\----------------------5--------3h3-3-------3--3------------------|
G:x--12\----x---------0-----5-5------0-----------4-5--5-4-5--4-----------|
D:x---------x--x--------5---5-7\--------------5----------------5---------|
A:x--12\----x--x--0-2---5-7------------------------------------------5--7|
E:-------0-----x-----------------2\3-----------------------------5-------|


e:------------------------------------------------------------------9-10-|
B:----------5-5-------------------8-10-8----------------------------7-10-|
G:--5-----5-7-5-7-----------------7------7--------7-7-7----7-----------7-|
D:--5-----------7--5-7--5------------------9---7--7-9-7-7--7-----9-------|
A:-----7-----------5-7--5------------------7-7-10-------10-7-------------|
E:------------------------5-7\-0-----------------------------7-----------|


e:-9--------7--------------------------------------------------------5/7-|
B:-7--7-10--7--------------------------------------------------------3/5-|
G:-7----------7------6---------5--5-5--5--------5-5--5------------0--0---|
D:------------9------8\7-----5-7--9-7--5--5--5--5-7--5------------5--5/7-|
A:------------------x---------------------8--7---------------------------|
E:--------------7-6-------5-----------------------------5\7--2/3---------|


e:-5--5\3-----------------------------------------------------------------|
B:-3--5\1--1---1---1--------1-----1--3\1--------------------7-------------|
G:-0--0----0---0---0--------0---0----2-------------------7--7-----7--7----|
D:----5\3----3-3-3-3--3-----------------------7----7-----7--9-----7--7--7-|
A:----------------------0-3---3----------3/5--5-5--5--5-----------------10|
E:------------------------------------------------------------------------|
                     
                     
                     
e:--------|--Drums--|
B:--------|---------|
G:----7---|---------|
D:--7-7---|---------|
A:--7-----|---------|
E:--------|---------|



                               
e:--12\------------------------------------------------------------------|
B:--12\------------------------------------------------------------------|
G:--12\----------------0h2p0--------------------------------------------7|
D:---------------------2-------2-------------------------------5--7--5--7|
A:---------------------2--------------------5h7--------------------------|
E:-------0-----------------------0-0-0-0---------5h7--3------------------|
    Well she's walkin                       through the clouds




e:------------------------------------------------------------------------|
B:-------------------------------------------------------------8h-10p-8--8|
G:--7--7--7----------------------------------------------------7----------|
D:--9--7--7-----------------------9--7--7------7---7----------------------|
A:--------10----------------------7--7--10--7--10--7----------------------|
E:------------7---------------------------------------0-------------------|
              with a circus mind           that's running wild



e:------------------------7--9--7----------------------------------------|
B:----8-------------------7--------10--7--7------------------------------|
G:------7---------------------------------7--7h9p7----------7h-9p-7------|
D:--------9----------------------------------------9--8--8--8--------7---|
A:-----------------------------------------------------------------------|
E:------------7----------------------------------------------------------|
              butterflies and zebras           and moonbeams



e:------------------------------------3----3-3---------------------------|
B:----------------------------------1-0----3-3---------------------------|
G:5--5--5-----------------------------0-0--------5-4---------------------|
D:9--7--5-----5-5-5-5-5-5\---------------------------5-------------------|
A:------------8-7-8-7-8-8\-----------------------------------------------|
E:-------------------------3---------------------------3-----------------|
              and, uh fairy tales       that's all she ever think's about



e:---------------------------------------------|
B:---------------------------------------------|
G:-----------------------------------------7---|
D:---------(10)----------------------------7---|
A:---------------------12---9------------------|
E:------/8------/10---(10)-(10)-10--10-10------|
          riding with the wind


e:--------------0--------0-----------------------------------------------|
B:--------------0h2p0----12h14p12--------0-------------------------------|
G:--------------------------------14-12--9-------------------------------|
D:----------2-------------------------------12-9-------------------------|
A:----------2------------------------------------------------------------|
E:---/12\---0--------------------------------------------------------3---|
  When I'm sad                                          She comes to me

[ Tab from: http://www.guitartabs.cc/tabs/j/jimi_hendrix/little_wing_tab_ver_5.html ]
   .   .   .   .
e:-----------------------------------------------------------------------|
B:-----------------------------------------------------------------------|
G:-7/9\7/9\7/9\7---------------------------------------------------------|
D:-7/9\7/9\7/9\7---------------------------------------------------------|
A:-------------------------------------------------------5--7--5---------|
E:------------------12\--5-----------------------5-5--7-----------3--5--0|
                         With a thousand smiles            She gives to me




e:-------------------------------------------------------------------9--10|
B:------------8h-10p-8-----------------------------------------------7--10|
G:------------7------------------------------------------------------7--7-|
D:------------------------------------------------------------------------|
A:---------------------------------12--12h-14--14-------------------------|
E:----------------------12--12--0-------------------7---------------------|
    free                                               It's alright, she


    
e:---9--7------------------------------------------------------------------|
B:---7--7--------------------5h-7p-5--5------------------------------------|
G:---7--7--------------------4---------------------------------------------|
D:------------9---------9--------------------7--9--7--7-------5-5-5-5-5-5-8|
A:--------------9----9-----------------------7--7--7--10------7-8-7-8-7-8-7|
E:----------------7--------------------------------------------------------|
  says it's alright                                           Take anything



e:--------------------5/7--5\3--3---------------------------------------|
B:--------------------3/5--5\1--1---------------------------------------|
G:------------2/4-----0----0----0---------------------------------------|
D:--------------------5/7--5\3--3------------------------------12-12-12-|
A:---------------------------------------------10--10----------12-12-12-|
E:-------3---------3----------------------3/8----------8--/10--10-10-10-|
   you want from me          anything                    anything


                            Whammy Bar
e:---------------------------12\------------|
B:---------------------------12\------------|
G:---------------------------12\------------|
D:12-12--12--12-12--12-12-------------------|
A:12-12--12--12-12--12-10-------------------|
E:10-10--10--10-10--10-10-------------------|




  Solo
e:------------------------------------------------------------------------|
B:-----15b(17)--15b(17)--15--12--12--15--12-----b(17)\15------------------|
G:--------------------------------------------------------12-------14b(16)|
D:------------------------------------------------------------------------|
A:------------------------------------------------------------------------|
E:13\---------------------------------------------------------------------|
                                                Fly  on little wing


e:--------------------------------------------------------------------|
B:---14---------------------------------------------------------------|
G:-b(16)--14b(16)-14---14b(16)\14--12--14--14b(16)\14b(16)---b(16)\14p|
D:--------------------------------------------------------------------|
A:--------------------------------------------------------------------|
E:--------------------------------------------------------------------|



e:-----------------------------------------------------------------------|
B:-------------------------------------------------10/12-----------------|
G:12------12-14b(16)-12-14-----12-14-12/14--12/14--------10/12--14b(16)--|
D:---14---------------------14-------------------------------------------|
A:-----------------------------------------------------------------------|
E:-----------------------------------------------------------------------|




e:--------------------------------------------------------15--15----------|
B:12h13p12-13-12-13-12-----15b(17)--b(17)\15--12----------15--15----------|
G:---------------------12-------------------------14b(16)---------14b(16)-|
D:------------------------------------------------------------------------|
A:------------------------------------------------------------------------|
E:------------------------------------------------------------------------|



e:-15------13----------13------------------------------------------------|
B:-15----------13------13----13------------------------------------------|
G:-----12----------12----------------------------------------------------|
D:-------------------------------12h14p12--------12h14p12----------------|
A:-------------------------------12--------15----12--------15--15/17-----|
E:-----------------------------------------------------------------------|
                                                                       

                        Whammy bar
e:---------------------------------------12\-----------------12-----------|
B:---------------------------------------12\---------15b(17)------15b(17)-|
G:---------------------------------------12\------------------------------|
D:12--14h-16p-14--12--14--14--12--12--------------------------------------|
A:12--12--12--12--12--12--12--12--12--------------------------------------|
E:------------------------------------------------------------------------|
  (with reverb or wah wah or something)                             Yeah, 


e:------------------------------15---15----------15----------15----------|
B:15----------------------------15---15----------15----------15----------|
G:----14b(16)--14--12---14b(16)----------14b(16)-----14b(16)-----14b(16)-|
D:-----------------------------------------------------------------------|
A:-----------------------------------------------------------------------|
E:-----------------------------------------------------------------------|
  yeah, yeah, yeah          ... little wing wing



e:15-------------------------------------------------------|
B:15-------------------------------------------------------|
G:----b(16)\14--12--14------12--14--14b(16)--12--14--12----|
D:----------------------14-------------------------------14|
A:---------------------------------------------------------|
E:---------------------------------------------------------|

ENJOY IT!!
===============================================================================
Comments