Jimi Hendrix - Little Wing Chords & Tabs

 

Little Wing Chords & Tabs

Jimi Hendrix Chords & Tabs

Version: 1 Type: Tab 0 ratings
1 star 2 stars 3 stars 4 stars 5 stars
comments

Little Wing Tab

   
HENDRIX
Little Wing Intro
 
---------12\-----------------------------------------3 5 3 3----- 
---------12\----------------------------5------------3---------
------X--12\--------X-----------0---5---5------0-----------------
------X-------------X----X-------5--5---7\-------------------5---
------X--12\--------X----X--0-2--5-7------------------------------
------------0------------X-----------------2\3--------------------
 
 
 
------------------------------------------------------------------
----3---3----------------------------------------5----------------
--4-5---5--4-5--4---------------------5--------5-7----------------
------------------5-------------------5--------------5-7--5-------
--------------------------------5--7----7------------5-7--5-------
-----------------------5-------------------------------------5-7\-
 
-----------------------------------------------------9--10--9-----
----------8-10-8-------------------------------------7--10--7-----
----------7------7-------7--7--7-----7-------------------7--7-----
-------------------9---7-7--9--7-7---7------------9---------------
-------------------7-7-10--------10--7----------------------------
----0--------------------------------------7----------------------
 
 
 
 
 
 
----------7--------------------------------------------------------
---7-10---7--------------------------------------------------------
------------7------6------------5--5-5--5------------5-5--5--------
------------9------8\7--------5-7--9-7--5--5-----5---5-7--5--------
-----------------X-------------------------8-----7-----------------
-------------7-6-----------5---------------------------------5\7---
 
-----------5/7--4--5-----5\3---------------------------------------
-----------3/5-----3-----5\1--1----1----1------------------3-1-0---
-------0---0-------0-----0----0----0----0--------2----2----2-------
-------5---5/7-----------5\3-------3----3--------2--2--------------
---------------------------------------------0-3--------------3----
--2/3-----------------0---------1-----1----1-----------------------
 
 
 
 
--------------------------------------------------------------------
------------------------------7-------------------------------------
--------------------------7---7------7---7------------7-------------
----------7-------7-------7---9------7---7---7---7----7-------------
---3/5-----5--------5------------------------10--7------------------
---------------------------------------------------------------------
 
This is a classic from Jimi Hendrix called Little Wing.  
It's just the beginning part, but thats probably the only 
part people remember it by.  On the album there is no 
background he just plays this by himself with a clean sound.
It takes some patience to learn it and after you learn it 
you need to put some feel into it.  The X's stand for a 
string mute. Just mute the strings and strum all of them.
The > stands for a finger slide either up or down the string,
depending on what side of the note it is on.  The ^ stands
for a hammer-on or a pulloff, again, depending on what note
it is going to.  This is a pretty accurate transcription.
Email me at:  76762.1504@compuserve.com  and let me know
what you think.  Any criticism is welcome, but hey, go easy,
I'm only 15 years old and bad criticism could have an effect
on me later in life, or so they say.  Anyway, hope you enjoy,
look forward to hearing from you.




E  X_______0__XX__>5^7_____________ >3___________________________
A  X__________XX_______________  7>______________________________
D  X_12>______XX______ 5__5^7_5__________0_____5_5___5_5_5___5__5
G  X_12>______XX______ 5__5___5__________0_____4_4^5_5_4_4^5_4___
B  X_12>______XX_________________________3_____3_3___3_3_3___3__
E  X_12>______XX_________________________3^5^3__3_3___3_3_3___3__


____________________________7>__0_________>10__________________
_______5^7___7________5^7_5_____________________7_10____________
_5_5>7_____5___5^7_5__5___5___________________________7_7___7___
___________5___5___5________________7_________________7_7^9_7___
____________________________________7^8^7_______________________
________________________________________________________________


_________>7_____________6___5_________________________5^7__>3
_10__7___________________________________8_7_________________
_______________________________7_7^9_7__5_5_5_5^7__5__________
____________7_7_7_7__7____6____5_5___5__5_____5____5_________
____________7_7_7_10_7____6__________________________________
____________7_9_7_7__7____6__________________________________


_______________________________________________10>_
___________________2>3____3>5__________10____7_____
_5>_7_7>_5_5>_3_3______5______7__7^9_7____7________
_0>_0_0>_0_0>_0_0______5______7__7___7____7________
_3>_5_5>_3_3>_1_1______5______7____________________
_5>_7_7>_5_5>_3_3__________________________________





-
From: kshunter@ersys.edmonton.ab.ca (Kevan Hunter)

Ok, here is most of little wing by Hendrix, if you can make sense of it. 
I didn't want to write out the chords under the lyrics because someone else
did that already. If you just listen to the record, you'll get it. Feel free
to submit this to Nevada, I would if I knew how. Revisions welcome (as if 
someone would get pissed if one re-wrote the tab and did a better job of it)
has anyone heard SRV's version off The Sky is Crying? Man is it awesome. 
Sorry no solo. Anyways, here it is. 


Intro
-----

e------12\----------x----x----------------------------3---3------|
B------12\----------x----x----------------------------3h5-3------|
G------12\----------x----x-----------------------------------5---|
D------12\----------x----x---------------------------------------|
A-------------------x----x---------0---------5h7-----------------|
E---0---------0-----x----x---0h2--------5h7-------3--------------|
                     strum
                     muted strings

[ Tab from: http://www.guitartabs.cc/tabs/j/jimi_hendrix/little_wing_tab.html ]
e-----3-3-3-3-3-----------------------------------------|
B-----5-5-4-5-4-4---------------------------------------|
G---------------5------------------5--------------------|
D-----------------------------5----5h7--5---------------|
A-------------------------5-7---7----------7--5h7p5-----|
E----------------------5-----------------------------7--|

e-----------------7-9-7--------------|       C chord: x32010
B-----------------7---7---10---7-----|       D chord: xx0232
G--------------------------------9---|
D-------0h2--------------------------|
A------------------------------------|
E----0--------7----------------------|                        

e-----------------------------------|---5/////7\\\\5-----3--| Strum 4 C chords
B-----------------------------------|---3/////5\\\\3-----1--| and 4 D Chords
G--------------5--------------------|-----------------------|
D---------5----5h7--5---------------|---5/////7\\\\5-----3--|  
A-----5-7---7----------7--5h7p5-----|-----------------------|
E--5-----------------------------7--|---3/////5\\\\3-----1--|

Verse
--
Em  G  Am  Em Bm Am G  F  C  D

For the solo, all I know is the all important b--15b--15b--15--12-15-12--|
at the start, and then just improv an e minor pent. with the verse playing 
for rhythm.


LITTLE WING (SOLO) BY JIMI HENDRIX  (GUITAR'S KING)

Well I think to this is correct but this is the first time I listened to Jimi
I lisended the version of skid row. and is great i like the heavy metal
and they roots. Well if you want send comentaries welcome or if you
want interchange something or say " hi" my address is
al262821@academ01.sal.itesm.mx to Carlos Mellado

   Em                                G
        full   full                         full        full
e-------/-----/\-----------------|----------/\----------/-------|
B-.--15/---15/--(15)--12--12--15-|--12---12/--\--------/----15--|
G--------------------------------|-------------\12--14/---------|
D--------------------------------|------------------------------|
A-.------------------------------|------------------------------|
E--------------------------------|------------------------------|

    Am7
        full                  full       full     _____
e-------/\--------------------/\---------/--\----/------\-------|
B------/--\------------------/--\-------/----\--/--------\------|
G---14/----\(14)------12--14/----\(14)-/------\(14)------(14)---|
D-----------------14-----------------------------------------12-|
A---------------------------------------------------------------|
E---------------------------------------------------------------|
   Em7

                 full
e---------------/------------------------------------------------
B--------------/-------------------------------------------------
G-------12--14/------12--14----12-14--12p14-~~~~~----------------
D--14-----------------------14-----------------------------------
A----------------------------------------------------------------
E----------------------------------------------------------------

   B7                               Bb
                                           full
e-----------------------------------------/-\--------------------
B----------------------------------------/---\-------------------
G--12p14-~~~---14p16~~~---14p12~~~~---14/-----\-14---------------
D----------------------------------------------------------------
A----------------------------------------------------------------
E----------------------------------------------------------------

     Am                           C
                                  full~~~
                                  _____
e--------------------------------/-----\-------------------------
B-12p13p12---13p12--13p12-----15/-------\-(15)-12----------------
G--------------------------12------------------------------------
D----------------------------------------------------------------
A----------------------------------------------------------------
E----------------------------------------------------------------



     G                              F(add9)

        full          full   slide                  /1/2\
e------/-----15--15-----/-15--------13-------------/-----\--------
B-----/----------------/-----\--------13-------13-/------(13)--13-
G--14/--------------14/-------12----------12---12---------12---12-
D-----------------------------------------------------------------
A-----------------------------------------------------------------
E-----------------------------------------------------------------

 this part is 2/4                 this part is 4/4 again

     C                              D

e--------------------------------|---------------------------------------------
B---8p---p----------8p---p-------|------------10----10p--p----10--------10-----
G---7p-9-p-7--------7p-9-p-7-----|------------9-----11p12p11--11--9-----9------
D--------------10------------10--|-/ 12---12-----12-----------------12------12-
A--------------------------------|---------------------------------------------
E--------------------------------|---------------------------------------------

   repeat and fade out           chards

          slow dive with bar    Em  G   Am7  Em7  Bm7  Bb  Am  C   F(add9) D
e------12\--------------------|-0---3---0----0----2----1---0---0----3------2---
B------12-\----/-----------.--|-0---0---1----3----0----3---1---1----1------3---
G------12--\--/---------------|-0---0---0----0----2----3---2---0----2------2---
D--12--12---\/----------------|-2---0---2----2----0----3---2---2----3------0---
A--------------------------.--|-2---2---0----2----2----1---0---3----0------0---
E-----------------------------|-0---3---0----0----0----0---0---0----0------0---



Comments