Jimi Hendrix - Little Wing Live Chords & Tabs

 

Little Wing Live Chords & Tabs

Jimi Hendrix Chords & Tabs

Version: 1 Type: Tab 0 ratings
1 star 2 stars 3 stars 4 stars 5 stars
comments

Little Wing Live Tab

   
Artist: Jimi Hendrix
Song: Little Wing Live
Album: BBC Sessions

Gtr I (Eb Ab Db Gb Bb Eb) - 'Jimi Hendrix - Lead / Rhythm clean electric'

Tab Legend:
| h  hammer-on
| p  pull-off
| ~  vibrato
| +  harmonic
| x  Mute note
| s  Slide

Intro
  Q=67
 4/4
  Gtr I
  S  E.    q  E S  S   S  S  S  a  S  +S   S  a  E
|---12\-||------------------------------------------|
|-x-12\-||----x-------------------------------------|
|-x-----||----x----0--------12----12-(12)-12--------|
|-x-----||----x---(0)----------12h14-(14)-12--------|
|-x-----||-2----------12h14------------------12h14\-|
|---12\-||-0----------12----------------------------|


  E. S a S S S S S S S S T T S S  S
|----------------5p3-5p3-5p3---------|
|--------3-----------3---3---3-------|
|------4h5p4-----------------4-------|
|------------5-----------------5-----|
|----5-------------------------------|
|-3------------3---------------3-(0)-|


  |3|
  E S S S a S S S S S S S S a S S a S s   Q  T  T s S S S S S T T S T  T S S
|------------------------------------|--------------------------------------|
|------------------------------------|----8h10p8----------------------------|
|---5---5h7p5--------5-----5---------|-----------7-------7-7----------------|
|---5-7-7----7-7---5-5---5h7-7-------|-------------7---7-9-7h9p7------------|
|----------------5-7---7-------5h7-7-|---------------7-----------7h10p7-7---|
|-5--------------------------------0-|-0------------------------------------|


         |3|                             |3| |3|                  |3|
  E E a  S E S S S S S S S S S S   E E a E S E S S S S a S S a S  E S
|--------7---------7-------------|------------------------------------|
|-----7h10p7-7---7---7-------6---|-------7-------------5h6------------|
|------------7-------7-------7-7-|---5---7-7-5-------5-----5-----(5)--|
|--------------------------8---8-|---7-7h9-7-5-----5-------5-----(7)--|
|--------------------------------|-------------0-3-----------5h7--7s5-|
|-7-7----------7-------0-6-------|-5----------------------------------|


                                          2/4
  E S S  S   S  S S T S. a S S S S S a S   E E  S  S S S
|--------5s==7--5---5s3------------------|---------------|
|--------3s==5--5---3s1----1-------1-----|-----(5)-------|
|-------(4)s(6)-4--------2---------2-----|---5--5--5-----|
|-------------------5s3--------3---3-----|---5-----5-5-5-|
|----------------------------------------|-3---------3---|
|-3-3-3-----------3----------1---1---3s5-|---------------|


                                                Verse 1
 4/4
                                |3|                             |3|
  E. S S  S  S S a E E  E E   a S E E Q  h       E  S  S T  T S E S E E E E
|---------------------------|-----------------||--------------------------x-|
|------------------7--------|-----------------||---------8h10p8-----------x-|
|----7-7-(7)-------7-7--7---|-----------------||--------------------------x-|
|-7--7-7-(7)-7-5-7h9-7--7-7-|-----------------||----------------9-9-9-9-----|
|-5----------5-5-------10-7-|-7h9p7-----------||--------------------7-7-----|
|---------------------------|-----------------||-0-(0)-0----------------0---|


        |-3-|     |-3-|         |3|
  E  E  S S S S S S S S +S  S a S E S S   E  E  a T S. S S T T S S S S S S S
|-------------------------------------|-------------------------------------|
|-----3-----------------------3-------|-------5h8p5--------------x----------|
|-----2h4p2-----5p4p2-(2)---2h4p2-----|---(5)--------5-5-5h7p5---x-------x--|
|-----------5-5-----------5-------5-x-|---(7)--------7-7-------7---5h7---x--|
|-----------------------------------x-|----------------------------5h7-7----|
|-3-(3)-------------------------------|-3-----------------------------------|


  E S S T  T S S S S  S S a S S  S S S   E E T  T S S S E S S S S S S
|--------------------------------------|-----7-------------------------|
|-------8h10p8-------------------------|---x-7h10p7---------------6----|
|--------------7--------7---7-7--------|---x--------7-7---7-----7-7-7--|
|-------9--------7-7----7-7h9-7--------|---x--------9-9---9-9---8---8--|
|------------------7-10---------10-7-0-|-------------------------------|
|-0-0-0--------------------------------|-7--------------7-----6--------|


                                                               2/4
                      |3|                               |-3-|     |3-|    |3|
  E S S E s  S  E S S E S E   E S S S S S S S S S S S S E a S   E E  S  E E S
|------------------------|-------5s7-5---5s3-3-------------|----------------|
|----5-------------------|-------3s5-3---3s1-1---1---------|----------------|
|--5-5-5-(5)-----5-5-----|---x-0-----------------0---------|----------------|
|---7--7-(5)---5---5-----|---5-5-5s7-----5s3-3-----3-------|---5-(5)---5-5--|
|------------3-------3h5-|---------------------------------|-3-3-(3)-3-3-3--|
|-5----------------------|-3-----------3-3s1-1-1-----1-3s5-|----------------|


                                            Verse 2
 4/4
          |3|
  E  E  E E S E S S S S S S   E E Q  h       E S S a  T S. S S E  E  E E
|-------------------------0-|-------------||-----------------------------|
|---(3)-3-3-3-3-3-3-3-3-3-3-|-3-----------||-------8h10-8----------------|
|----2--2-2---2-2-2-2-2-2-2-|-2-----------||----------7----7-7---(7)-7-x-|
|-0--0----0---0-0-0-0-0-0---|-0-----------||---------------9-9---(9)-9-x-|
|---------0-----------------|-------------||-------------------7--7------|
|---------------------------|-------------||-0-0-0-----------------------|


                                                        |3| |--3--|
  E S S S S S S S a S S  S  S S E   E E T T S S S S S e E S E    +S
|-----------3s5-3-----------------|-----------------------------------|
|-------2s5-3s5-3-3s5s3---------3-|-----5-----------------------------|
|-------2s4-------2s4s2--0----4---|---5-5h7p5-------------------------|
|-----------------------------5---|---7-------7-7-7---5-----5---------|
|---------------------------------|---------------5h7-------5b6==(5)r-|
|-3-3-3-----------------(3)-3-----|-5-------------------5-7-----------|


                               |3-| |3|              |3|   |3| |3| |3|
  E. S a  T S. S S S  S  S a S E  S E S   E  E   a E E S E E S E S E S
|---------------------------------------|------------------------------|
|------8h10p8--8------------------------|-------10p7-------------------|
|----7---------7-----(7)-7---7----------|------------7-7---7-------6---|
|----9-----------9-7--7--7-7h9-7----7---|------------9-9---9-9---8-----|
|------------------7-10----------10-7---|-9-(9)------------------------|
|-0-----------------------------------0-|-7--------------7-----6-----0-|


                         |3| |3| |3|
  E S S a T S. S T  T  E E S E S E S   E S S S S S S T S. S  S  E S S
|------------------------------------|-------5s8-5---5s3--3-----3-----|
|-------5h8p5------------------------|-------3s6-3---3s1--1-----1-----|
|-----5--------5---------5-5---5---5-|--------------------0-----0-0---|
|-----7--------7---------5-5-5-5-5---|-------5s8-5---5s3--3-----3-3---|
|----------------------3-3---3-------|----------------------(3)-------|
|-5-5------------5p(0)---------------|-3-3-3-------3-3s1-----1------1-|


 2/4         4/4
                |3|   |3|   |3| |3| |3|
  E E E S S   E E S E E S E E S E S E S
|-----0-0-0-|---------2-2---2-2-2-------|
|-----1-1-1-|-3-3-----3-3---3-3-3-3-3-3-|
|---0-0-0-0-|-2-2---2-2-2-2-2-2-2-2-2-2-|
|---2-2-2-2-|-0-0-0-0-0-0-0-0-0-0-0-0-0-|
|-3---3-3-3-|-----0---0-0-0-0-0---------|
|-----------|---------------------------|


                                Guitar Solo
      \1.5_____________/
                                  ~~~~~
  |3|                                                  |3-|
  E S Q.      +E  +E  +E  +E      h        E     E  E  S  E
|-----0-------(0)-(0)-(0)-(0)-||----------------------------|
|-3-x-0-------(0)-(0)-(0)-(0)-||-15b17----15b17-15-12-12h15-|
|-2-x-0-------(0)-(0)-(0)-(0)-||----------------------------|
|-0-x-------------------------||----------------------------|
|-----------------------------||----------------------------|
|-----------------------------||----------------------------|

[ Tab from: http://www.guitartabs.cc/tabs/j/jimi_hendrix/little_wing_live_tab.html ]
   ~~~
         |--3--|  |--3--|            |--3--|
   Q.    S  S  S  E     S     a      S  S  S  E      a  T  T  S
|---------------------------------------------------------------|
|-12------------------------------------------------------------|
|-------------12-14b16-14b16-14pb16r14p12----14b16==14r14p12----|
|-------12-14-----------------------------14-----------------14-|
|---------------------------------------------------------------|
|---------------------------------------------------------------|


      ~~              ~~~~~~~~~
   a  Q   +S   a  E.  Q   E  E
|-------------------------------|
|-------------------------------|
|-12s14--(14)-14s16--16--14-12--|
|-------------------------------|
|-------------------------------|
|-------------------------------|


            ~~~~~~~                               ~~
                |-3-|                                |--3--|
   a  E  S  S  +E   S  T  T  T  T  S  S  T  S  T  E  S  S  S
|------------------------------------------------------------|
|------------------------------------------------------------|
|-12h14------------------------------------------------------|
|-------14-14-(14)-------12-------12----------12h14-14p12-14-|
|------------------12-14----12h14----12----------------------|
|---------------------------------------15-12----------------|


      ~~     ~~~~~~
                        |3-|     |3-|
   a  Q   a  Q   Q   a  E  S  a  E  S
|--------------------------------------|
|--------------------------------------|
|-12s14--14s16--12--12h14-12-----------|
|----------------------------14p12-12--|
|--------------------------------------|
|--------------------------------------|


      |3-|  |3-|
   a  E  S  E  S  S  S  S  S  Q      S      +S   e
|--------------------------------------------------|
|----13p12-13p12-13p12-------15b17--15pb17r(15)-12-|
|-12-------------------12-12-----------------------|
|--------------------------------------------------|
|--------------------------------------------------|
|--------------------------------------------------|


                                   |--3--|                   |-3-|
   S      +S    S  S      +S    S  E     S  a      E  S  S  +E   S  S  S
|--------------15--------------15-------15--------------13-(13)-----------|
|-------------------------------------------------------------------------|
|-14b16==(14)r----14b16==(14)r----14b16----14pb16r14-14---------14-14S(x)-|
|-------------------------------------------------------------------------|
|-------------------------------------------------------------------------|
|-------------------------------------------------------------------------|


 2/4                        4/4
  |-3--|
  S  S S  S  S T T  S S  S    a  E E  T  T S  S  T  T  a S  S  E  +S   S  S  S
|-8---------------------|---------------------------------------------------|
|-8h10p8----8------8----|---------10---------10------------10-(10)----10----|
|-----------9p7----7----|-------9--9h11-9-----9h12-12p9-----9--(9)-----9----|
|---------------10---10-|-10s12-----------12------------12---------12-------|
|-----------------------|-----------------------------------------------12--|
|-----(8)-8-------------|--8s10---------------------------------------------|


    \1.5________/
  a h.         +E. +S
|----------------------||
|----------------------||
|---0----------(0)-(0)-||
|-0--------------------||
|----------------------||
|----------------------||


                                                      |--3--|
   Q      S  a      E      +S    S  S      +E   E     S  S  S
|--------15---------------------15-------------15-------------|
|-15b17-----15pb17r15b17==(15)r----15pb17r(15)-15b17-15p12----|
|----------------------------------------------------------14-|
|-------------------------------------------------------------|
|-------------------------------------------------------------|
|-------------------------------------------------------------|


   ~~~~~    ~~~~~                              ~~~
                     |-----3-----|
   E.    S  E.    S  S      +S   S  +S   T  T  E.  S
|----------------------------------------------------|
|-------15-------15----------------------------------|
|-14b16----14b16----14pb16r(14)-12-(12)-------12-----|
|---------------------------------------12h14-----14-|
|----------------------------------------------------|
|----------------------------------------------------|


      ~~~~~~~            ~~~~~~
   |3-|       |3-|             |3-|  |3-|  |--3---|
   S  E  +E   S  E  +E   E     E  S  E  S  E      S
|----------------------------------------------------|
|-----------------------------------------15b17==15r-|
|-14-14-(14)-16-16-(16)-16b17s12-14----12------------|
|-----------------------------------14---------------|
|----------------------------------------------------|
|----------------------------------------------------|


                  |--3--|                 |--3--|
   S     E     S  S  S  S  T  T  T  T  S  T  T  T  T  T  X  X  T  a  E  S  S
|-------------12------12-15-12----------------------------------------------|
|-15b17-15b17----12-15---------12h15p12-------------------------------------|
|---------------------------------------14-14-12----12----------------------|
|------------------------------------------------14----14p12----12h14-12----|
|------------------------------------------------------------14----------14-|
|---------------------------------------------------------------------------|


                      ~~~                           ~~~
   S  S   S    S   a  E  S  S  a  S  a  S  S  a  S  E.  S
|---------------------------------------------------------|
|---------------------------------------------------------|
|-------(12)-(12)-12s14s12----12s14-14s12----12s14-12-----|
|--------12---14-----------14-------------14-----------14-|
|-12-14---------------------------------------------------|
|---------------------------------------------------------|


                           ~~~~~~
   |3-|                           |---3---|  |--3--|
   E  S  S  S  S  S  S  S  E      S  +S   S  E     S     S      S
|-----------------------------------------------------------------|
|----------13p12----------15b17==15r(15)-12-15b17-15b17-15pb17\---|
|-------12-------12----12-----------------------------------------|
|-12-14-------------12--------------------------------------------|
|-----------------------------------------------------------------|
|---------------------------------------------------------------0-|


   E S S S S S S S S S S E S S
|--------5p3-3-----------------|
|------3-3---3---1---1---1-1---|
|------4-4---4---2---2---2-2---|
|-/5-5-5-5---5---3-3-3---3-3---|
|----------------------3---3-3-|
|-/3-3-3-3---3-0-1---------1---|


 2/4               4/4
  E S S S S S a S   S S S S +Q   +Q   +S   S  S  S
|-----------------|--------------------------------||
|-----------------|-------8-(8)--(8)--(8)----------||
|-----7-7---------|-----8-8-(8)--(8)--(8)----12-14-||
|---9-9-9---------|---8---8-(8)--(8)--(8)-14-------||
|---7-7-7---2-2s4-|-6-----6-(6)--(6)--(6)----------||
|-0-0-----0-0-----|--------------------------------||


 Free Time
   S     T  T  S  S  S  S  S  S  E.    S  S S S S
|-------------------------------------------------:
|-------------------------------------------------:
|-14b16-12h14p12----12----12-14-11tr12-9-11-6-7-9-:
|----------------14----14-------------------------:
|-------------------------------------------------:
|-------------------------------------------------:


                  ~   ~~   ~   ~
  |-3-|                    |3|
  T T T S S S E a E a E. S E S E
|--------------------------------:
|--------------------------------:
|-7h9p7-5-4-2s5-5s7-7s2--2s9-9s2-:
|--------------------------------:
|--------------------------------:
|--------------------------------:


                                         3/4          4/4
     ~~                 ~       ~           ~~~~~~
         |--3--| |-3--|
  a  Q   S  S  S S  S S E T T S E T T S   E E +H        H.      Q
|---------------------------------------:------------:-^5-----------*|
|---------------------------------------:------------:-^3-----------*|
|-2s11--11h12p11s9-11p9s7-7h9p7s5-5h7p5-:-5s4-(4)----:-^4-----------*|
|---------------------------------------:------------:-^5-----------*|
|---------------------------------------:------------:--------------*|
|---------------------------------------:------------:-^3-----------*|
Comments