Jimi Hendrix - Little Wing Chords & Tabs

 

Little Wing Chords & Tabs

Jimi Hendrix Chords & Tabs

Version: 1 Type: Bass Tab 0 ratings
1 star 2 stars 3 stars 4 stars 5 stars
comments

Little Wing Bass Tab

Angel - Jimi Hendrix

  verse (repeat)
G|------------------------3-------------------|
D|--------------------------------3-----------|
A|---1233-35----5-3-31--3-------13----333-1113|
E|11--------33-3------31----311---------------|

  bridge "Then she spread her wings.."
G|-------------------------------------------------------------------------------|
D|-------------------------------5555----7777----88888888888888888-88-88-88-8-8--|
A|1-1-1-234-4-4-43333333333333333------------------------------------------------|
E|-----------------------------------3333----5555--------------------------------|
[ Tab from: http://www.guitartabs.cc/tabs/j/jimi_hendrix/little_wing_btab.html ]
  chorus (repeat)                                       chorus outro
G|-----------------------------------------------------|------------------------|
D|---10108-10108-10\---10108-10108-10\-----------------|------------------------|
A|6-----------------8------------------2-----4--5--6---|654\2222----444455556---|
E|----------------------------------------4------------|--------4444------------|

  outro
G|--------------------------------------------------------------9101010101010101010101010101010
D|33333333333333356666666666666669101010101010101010101010101010-------------------------------
A|---------------------------------------------------------------------------------------------
E|---------------------------------------------------------------------------------------------

16161617171717/17/17/17171717----------|
------------------------------fade out-|
---------------------------------------|
---------------------------------------|

tabbed by Chris (blue_sincere@hotmail.com)
Comments