Jimi Hendrix - Little Miss Strange Chords & Tabs

 

Little Miss Strange Chords & Tabs

Jimi Hendrix Chords & Tabs

Version: 1 Type: Tab 0 ratings
1 star 2 stars 3 stars 4 stars 5 stars
comments

Little Miss Strange Tab

   
Little Miss Strange [by Noel Redding]


Intro:
(acoustic)
--0----0---0--0----0---0---0---0---0---0---0----0---0---0---0---0---0-|
-13---13--13-13---12--12--12--12--12--12--12---10--10--10--10--10--10-|
-14---14--14-14---12--12--12--12--12--12--12---11--11--11--11--11--11-|
--0----0---0--0----0---0---0---0---0---0---0----0---0---0---0---0---0-|
----------------------------------------------------------------------|
----------------------------------------------------------------------|

--0----0---0--0----0---0---0---0---0---0---0----0---0---0---0---0---0-|
-13---13--13-13---12--12--12--12--12--12--12---10--10--10--10--10--10-|
-14---14--14-14---14--14--14--14--14--14--14---11--11--11--11--11--11-|
--0----0---0--0----0---0---0---0---0---0---0----0---0---0---0---0---0-|
----------------------------------------------------------------------|
----------------------------------------------------------------------|

guitar 1
------------------------------15(17)--15(17)15p13----13-15-|
-/15---15-15----/15---15-15-----------------------15-------|
-----------------------------------------------------------|
-----------------------------------------------------------|
-----------------------------------------------------------|
-----------------------------------------------------------|
guitar 2
------------------------------------------------------------|
-/13---13-13----/13---13-13---13(15)13----------------------|
---------------------------------------12(14)12--10--12--10-|
------------------------------------------------------------|
------------------------------------------------------------|
------------------------------------------------------------|
guitar 1
-15(17)15-13---------------------------------|
-------------15--15--------------------------|
--------------------------7--9p7----9p7---7--|
-----------------------/9--------9-----------|
---------------------------------------------|
---------------------------------------------|
guitar2
---------------------------------------------------|
---------------------------10--12p10------10h12-10-|
-12(14)12-10-----------/11------------11-----------|
-------------12--12--------------------------------|
---------------------------------------------------|
---------------------------------------------------|
guitar 1
--------------------------------------|
-----10--12p10----10(12)-10--10(12)10-|
-/11-----------11---------------------|
--------------------------------------|
--------------------------------------|
--------------------------------------|
guitar2
----------------------------------------|
-----15-17p15----17(19)-17(19)-17(19)17-|
-/16----------16------------------------|
----------------------------------------|
----------------------------------------|
----------------------------------------|
chorus
guitar 1 (2x)
||--------------------------------------||
||-15(17)-15(17)-15(17)-15(17)-15(17)15-||
||--------------------------------------||
||--------------------------------------||
||--------------------------------------||
||--------------------------------------||
guitar 2  (2x)
||-------------------------------||
||-------------------------------||
||-14(16)-14(16)-14(16)-14(16)14-||
||-------------------------------||
||-------------------------------||
||-------------------------------||

solo:

guitar 1
-10---------------------------10-------------|
----12-10------------------10-----13-13(15)--|
----------12p10-----12/13--------------------|
----------------12---------------------------|
---------------------------------------------|
---------------------------------------------|
guitar 2
-----------------------------------12(14)12--10---------------|
------------------------------------------------12-10---------|
------------------------------------------------------12-11---|
-----------------------------------------------------------12-|
--------------------------------------------------------------|
--------------------------------------------------------------|
guitar 1
-10--------------------------------------------------------------------------------------------|
-----------------------10-13p10----10-13p10----------------------------------------------------|
----13(14)-10----10-12----------12----------12(14)12-10----10-12(13)-12-12(14)12p10--12-12(13)-|
--------------12----------------------------------------12-------------------------------------|
-----------------------------------------------------------------------------------------------|
-----------------------------------------------------------------------------------------------|
guitar 2
------------------------------------------------------------------------------|
------------------------------------------------------------------------------|
-12(14)-12(13)--12(14)-12(14)----12(14)---12(14)12--12-12(14)-12(13)--12(14)--|
------------------------------------------------------------------------------|
------------------------------------------------------------------------------|
------------------------------------------------------------------------------|
guitar 1
-----------------------------------------------------------------------------|
---------------------------------12(14)---12(14)12--12-12(14)-12(13)--12(14)-|
-----------------------------------------------------------------------------|
-----------------------------------------------------------------------------|
-----------------------------------------------------------------------------|
-----------------------------------------------------------------------------|
guitar 2
-----------------------------------------------------------------------------------|
-----------------------------------------------------------------------------------|
-12(14)-12(14)12p10--12(14)-12(14)----12(14)---12(14)12--12-12(14)-12(13)--12(14)--|
-----------------------------------------------------------------------------------|
-----------------------------------------------------------------------------------|
-----------------------------------------------------------------------------------|
guitar 1
-----------------------------------------------------13-13-13-13-----------------|
-15(17)-15(17)15p14-15-15(17)--15(17)-15(16)-15(17)------------------------------|
-----------------------------------------------------------------12-12-12-12-----|
-----------------------------------------------------------------------------12\-|
---------------------------------------------------------------------------------|
---------------------------------------------------------------------------------|

(guitar 1 plays intro figure)

guitar 2
--------10--------------------------------------|
-13(15)----13-10-----------------------10-------|
-----------------12(14)-12-10----10h12----10----|
------------------------------12-------------12-|
------------------------------------------------|
------------------------------------------------|

---------------------------------------------------------------------|
-----------------------------------------------------------13--------|
--12(14)-12-10-------12(14)-12-10----12(14)-12-10----12(14)---12(14)-|
---------------12-10--------------12--------------12-----------------|
---------------------------------------------------------------------|
---------------------------------------------------------------------|
[ Tab from: http://www.guitartabs.cc/tabs/j/jimi_hendrix/little_miss_strange_tab.html ]
----------------------------------------------------------------10--------------|
-------------------------------------------------------------10----13-10--------|
-----10-12-10---------------------------------------10h12-12-------------12(14)-|
-/12----------12-10(11)----------10----------10--12-----------------------------|
------------------------12-10h12----10-8-/12------------------------------------|
--------------------------------------------------------------------------------|

-------------------10----------------------------------------------|
----------------10-------15(17)-15(17)-15(16)-15(17)---15(17)15-12-|
-12-10----10h12----------------------------------------------------|
-------12----------------------------------------------------------|
-------------------------------------------------------------------|
-------------------------------------------------------------------|

---------------------------------------------------------|
---------------------------------------------------------|
-14(16)-14-12-14-12-------12(14)--12(14)---12--12(14)-12-|
--------------------14-12--------------------------------|
---------------------------------------------------------|
---------------------------------------------------------|

-------------------------------------------------------------|
-------------------------------------------------------------|
----14p12----12-14-14(16)14-12-14p12----14-14(16)14-12-14-14-|
-14-------14-------------------------14----------------------|
-------------------------------------------------------------|
-------------------------------------------------------------|

(E7 A7 section)
-15-12-----------------12-------------------------12--------------------------------------------|
-------15-12--------12----15-12----------------12----15-12------------------------12------------|
-------------12--12-------------12----12-14-12-------------14(16)-12----12-14(16)----14-12---12-|
-----------------------------------14--------------------------------14--------------------14---|
------------------------------------------------------------------------------------------------|
------------------------------------------------------------------------------------------------|

third chorus
guitar 1
-15(17)-15(17)-15(17)-15(17)--15--||--15-12----------------------||
----------------------------------||--------15-12----------------||
----------------------------------||--------------14-12----------||
----------------------------------||--------------------14-12-14-||
----------------------------------||-----------------------------||
----------------------------------||-----------------------------||
guitar 2
----------------------------------||-----------------------------||
-15(17)-15(17)-15(17)-15(17)--15--||--15-12----------------------||
----------------------------------||--------15-12----------------||
----------------------------------||--------------14-12----------||
----------------------------------||--------------------14-12-14-||
----------------------------------||-----------------------------||

outro:
wah-wah
   (3x) F#  B/F#
||-6p2---6p2---7p2---7p2---||-6p2---6p2---6p2---6p2--|
||-----2-----2-----2-----2-||-----2----2-----2-----2-|
||-------------------------||------------------------|
||-------------------------||------------------------|
||-------------------------||------------------------|
||-------------------------||------------------------|
   (3x) (G# C#/G#)4x
||-8p4---8p4---9p4---9p4---||-8p4---8p4---8p4---8p4--|
||-----4-----4-----4-----4-||-----4----4-----4-----4-|
||-------------------------||------------------------|
||-------------------------||------------------------|
||-------------------------||------------------------|
||-------------------------||------------------------|

guitar 1 (3x) (A# D#/A#)4x
||-10p6---10p6---8p6---8p6---||-10p6---10p6---10p6---10p6--|
||-----6------6-----8-----8--||-----6------6------6------6-|
||---------------------------||----------------------------|
||---------------------------||----------------------------|
||---------------------------||----------------------------|
||---------------------------||----------------------------|

guitar 2 (3x)
||-10p6---10p6---11p6---11p6---||-10p6---10p6---10p6---10p6--|
||-----6------6------6------6--||-----6------6------6------6-|
||-----------------------------||----------------------------|
||-----------------------------||----------------------------|
||-----------------------------||----------------------------|
||-----------------------------||----------------------------|

(E  A)4x
----------------------------------------------------------------------|
-15-15-15-15----15-15-15-15---15-15-15-15---14-14--12--12-----12------|
-16-16-16-16----16-16-16-16---16-16-16-16---14-14--12--12(13)-12(13)--|
----------------------------------------------------------------------|
----------------------------------------------------------------------|
----------------------------------------------------------------------|
guitar 1
----------------|
----12----------|
-12----12-12-12-|
----------------|
----------------|
----------------|
guitar 2
--------------------------------|
----------------------12-15(17)-|
----12----------12-14-----------|
-14----14-12-14-----------------|
--------------------------------|
--------------------------------|
guitar 1 (2x) (A G/A E)2x
||--7h9p7--5h7p5--4h5p4--2h4p2--0---0----||
||-------------------------------------3-||
||---------------------------------------||
||---------------------------------------||
||---------------------------------------||
||---------------------------------------||
guitar 2
||--------------------------------------||
||--5h7p5--4h5p4--2h4p2--0h2p0----------||
||-------------------------------2---1--||
||--------------------------------------||
||--------------------------------------||
||--------------------------------------||

----------------------|
----------------------|
-7-/6-----/9--7--6----|
-------7------------7-|
----------------------|
----------------------|

guitar 1    A G/A E
--7h9p7--5h7p5--4h5p4--0--|
--------------------------|
--------------------------|
--------------------------|
--------------------------|
--------------------------|
guitar 2
------------------------------|
--5h7p5--4h5p4--2h4p2---------|
-----------------------2---1--|
------------------------------|
------------------------------|
------------------------------|


A             G
No one knows where she comes from
Maybe she's a devil in disguise
I can't tell by looking in her eyes
              D      C  D
Little Miss Strange
              D      C  D
Little Miss Strange

             C       D
Little Miss Strange came into my parlor
A             G
I don't know just what to ask her
                                  G
I don't remember what we did after

(chorus)
(solo)

E7 A7 E7 A7 E7 A7 E7 A7

B                    A
Little Miss Strange came out of the darkness
                 D/A
Walked across my head, I stood beneath the light
  A
I told you about the dream I had the other night
              E      D  E
Little Miss Strange
              E      D  E
Little Miss Strange

D  E  D
F#  B/F#
(G# C#/G#)4x
(A# D#/A#)4x
(E A)4x
(A G/A  A G/A  E)3x
Comments