Jimi Hendrix - Hoochie Coochie Man Chords & Tabs

 

Hoochie Coochie Man Chords & Tabs

Jimi Hendrix Chords & Tabs

Version: 1 Type: Bass Tab 0 ratings
1 star 2 stars 3 stars 4 stars 5 stars
comments

Hoochie Coochie Man Bass Tab

(I'm Your) Hoochie Coochie Man - Jimi Hendrix


 verse riff  bridge           chorus
G|----1----|--44--44--44--44|------4-4----------4-4-----------------------------------------6----
D|--1--/6~~|56--56--56--56--|-----6---86-------6---86--------4-4----------4-4-------/8-8-----64--
A|24-2-----|----------------|4-48-------8-4-48-------8------6---86-------6---86--6-6----6-6----4-
E|---------|----------------|--------------------------4-48-------8-4-48-------8-----------------

                                 the 2nd verse ends
                                 like this (bridge) 2nd chorus
----4-4-------------------------|-----1-1---------|------4-4----------4-4-------------
---6---86--6-64-43-32-21-1----4-|---1----4-43-32-2|-----6---86-------6---86--6-6---4-4
48-------8----------------456---|-24-2------------|4-48-------8-4-48-------8------6---
--------------------------------|-----------------|-----------------------------8-----
[ Tab from: http://www.guitartabs.cc/tabs/j/jimi_hendrix/hoochie_coochie_man_btab.html ]
------------------------6-643--------4-430---------------------------|
----6-6---4-4----------8-----3------6-----2-6-64-43-32-21-1----------|
86-------6---8---6-610---------4-48------------------------234666666-|
--8----8-------8-----------------------------------------------------|

    solo
G|-------------------4-4----------------------------------4-4----------4-4------------4----
D|------4-4---------6---86--6-64-43-32-26-64-43-32-2-----6---86-------6---86--------4--86--
A|-----6---86--4-48-------8-------------------------4-48-------8-4-48-------8------6-----8-
E|4-48-------8----------------------------------------------------------------4-48---------

--------------------------------6-6----------4-4-------------------------|
------4-4----------4-4---------8---86-------6---86--6-6456-456---6-6---4-|
-----6---86-------6---2346-610-------8-4-48-------8-----------456---234--|
4-48-------8-4-48--------------------------------------------------------|

This is how it sounds to me on the BBC album.  I realize this is a half step lower than the
original Muddy Waters recording, but the entire BBC album seems to be lower pitched than normal.

tabbed by Achilles (blue_sincere@hotmail.com) 
Comments