Jimi Hendrix - Hey Joe Chords & Tabs

 

Hey Joe Chords & Tabs

Jimi Hendrix Chords & Tabs

Version: 8 Type: Tab 0 ratings
1 star 2 stars 3 stars 4 stars 5 stars
comments

Hey Joe Tab

   
Hey Joe
Jimi Hendrix


Gtr I (E A D G B E) - 'Jimi Hendrix clean electric'
Gtr II (E A D G B E) - 'Jimi Hendrix dirty electric'

Intro
  Q=88
 4/4
  Gtr I
  A E  E A S S A E    E   E  E E A E S S +S  S E   Q  E E S S S S S S E
|---0--0-----------|---------0-------------------|-----------------------||
|-4h5--3-----------|---------0-------------------|------------7----------||
|--------4s2p0-----|-----(1)-1-------------------|----4---7---7-7---7----||
|--------------0h2-|-(2)--2--------5---5-(5)---4-|-2--2---7h9---7h9-7-9\-||
|------------------|-------------4s5---5-(5)---4-|-2--2------------------||
|------------------|--0--------0-----0-------0---|-0--0-0----------------||


 Verse 1
  Gtr I
                   |3|                     |3| |3|
   E E E E  E S S  E S A E   E S S E A E E E S E S E
|--------------------------|-------------------------|
|------1------3-3----------|-------------------------|
|------0------4-4----------|---7-7-------------------|
|--------------------------|-7-------5s7-7---7-7-7-7-|
|-/3-3---3-----------5-----|-5-----7-7s9-7---7-7-7-7-|
|----------/3-----/7---4s5-|-------------5-5---5-5-5-|
|
| Gtr II
|  Q   Q    Q      Q         Q     Q     Q     Q
|------------------x-------|-------------------------|
|-/x---x-----------x-------|-------x-----------x-----|
|-/x---x-----------x-------|-------x-----------x-----|
|-/x---x-----------x-------|-------x-----------x-----|
|--------------------------|-------x-----------------|
|--------------------------|-------------------------|


  E E q   E  S S +S  S E
|-----------------------------|
|-----------------------------|
|-----1---1-------------------|
|-----2---2--0-0-(0)----------|
|-----2--(0)-2-0-(0)-2--------|
|-0--------------------3b3.5--|
|
|            PM
| Q   Q   E  S S +S  S E
|-----------------------------|
|-----x-----------------------|
|-----x-----------------------|
|-----x-----------------------|
|-----x--------5-(5)---5------|
|-0----------7-------7--------|


                  |3|               |3| |3|
  Q  E. S S S S S E S E   E E E E E E S E S   E
|-----------------------|-------------3h5-3-----|
|---------0-------------|-----5-----3-3-3-3-----|
|----1--1-1-----1---x-x-|-----5-----4---4-4-----|
|----2--2-2p0-0-2---x-x-|-----5-----5---5-5-----|
|----2--------0-2---x-x-|-3-3---3-------------0-|
|-0--0------------0-----|---------3-------------|
|
| ~M
| Q  Q    Q       Q       Q   Q   Q     E   a E
|-----------------------|-----------------------|
|-----------------------|-----x---------x-------|
|----x------------x-----|-----x---------x-------|
|----x------------x-----|-----x---------x-------|
|----x------------x-----|-----------------------|
|-0---------------x-----|-------------------5s7-|


        |3|   |3| |3|
  E E E E S E E S E S A   +E
|--------------------------------|
|---3-----0-----0----------------|
|---2-2-----2-2-2---2------------|
|-0---2h4---2-2---2-2------------|
|-0---------0-----0--------------|
|---------------------3b4-(4)----|
|
| Q   Q     Q     E        S  S
|--------------------------------|
|-----x-----------x--------------|
|-----x-----------x--------------|
|-----x-----------x--------------|
|-5------------------------------|
|--------------------------5s10--|


        |3-|         |-3--|
  Q  E +E  S E  S S +E    S E
|-----------------------------|
|----0-(0)-0-0----------------|
|-1--1-(1)-1-1----------------|
|-2--2-------2----------------|
|-2--2------------------------|
|-0--0----------0-3-(3)---0-3-|
|
| Q  Q       E  S S +S  S   E
|-----------------------------|
|----x------------------------|
|----x------------------------|
|----x------------------------|
|-----------------5-(5)-----5-|
|-0------------/7-------7-----|


          |3|            |-3--| |3|                  |3| |-3-|
    E E E E S A E   S S +E    S E S    E E E E E S S E S E   S
|-----------0---------0-(0)---0-----|--------------5---5-------|
|-----0-0---0-------3---------3---0-|----------3-3-3-3-3-----3-|
|---1-1-1-1---2s4---4-----------4S0-|------5---4-4---4---4---4-|
|---2---2-2-------------------------|------5-5-----------5-----|
|---2---2---------------------------|--3-3-3-3-----------------|
|---0---0---------------------------|----------3---------------|
|
|   ~
| a Q   q       S S S S +S  S   e      Q   Q   Q     E   S S
|-----------------------------------|--------------------------|
|-----------------------------------|------x-------------------|
|-------9---------------------------|------x-------------------|
|-------9---------------------------|------x-------------------|
|-5-7---------------5-7-(7)-5-------|-/3-----------------------|
|---------------5h7-------------7---|----------3---------3s7---|


                               |3|           |3-|
  S S E E E E S S S S E   Q  E E S E A  S S +E  S E
|-------------7-7---7---|-------------------------------------|
|-------7-----5-5-5-5---|----------9--------------------------|
|-------7-----6---6---7-|----9---9-9--------------------------|
|-5s7-7-7-7-7-7---7---7-|----9-x-9-9--------------------------|
|-7s9-------------------|----7-x----------------5-------------|
|-----------------------|-0----------5s=7-5-(5)---3b3.5-------|
|
| Q     e E Q     Q       Q  Q     E    S S +E    S     S
|-----------------x-----|-------------------------------------|
|-------7---------x-----|-------------------------------------|
|-------7---------x-----|----x--------------------------------|
|-------7---------x-----|----x--------------------------5b5.5-|
|-5---------------------|----x------------5-(5)---------------|
|-----------------------|--------------/7---------7-----------|


  A E E E E E   E S S S  S
|--------------------------|
|-------0-------0-x-0-0----|
|-------1-1-0---0-x-0-1----|
|-0s2-2-2-2-0---0-x--------|
|-0s2-----------0----------|
|---0--------------------0-|
|
|   ~
|   H       S S E S S E
|--------------------------|
|--------------------------|
|--------------------------|
|--------------------------|
|---7-----------5-7-5------|
|-----------5-7-------7\---|


  E E E E E. S +S  S S S   a S S S S e E E S S S S E
|------------5-(5)-3-3-3-|-------------------5-------|
|-----5---3--3-(3)-3-3-3-|-----7---5-7-7---5-5-5-----|
|-----5---4--------4-4-4-|-----7---5-7-7---6---6-7-7-|
|-----5---5--------------|-----7-7-5-7-7-7-7---7-7-7-|
|-3-3---3----------------|-7s9---9-7-9-9-------------|
|------------------------|---------------5-----------|
|
| Q   Q   Q     Q            Q       Q   Q     Q
|------------------------|---------------------x-----|
|-----x------------------|-----------x---------x-----|
|-----x---------x--------|-----------x---------x-----|
|-----x---------x--------|-----------x---------x-----|
|---------------x--------|---------------------------|
|------------------------|---------------------------|


        |3-|  |3-|
  Q  E +E  S  E  S S E   S E
|--------------------------0--|
|-0----------------------0-0--|
|-1--------1-(1)--------------|
|-2--------2-(2)---0-0---2----|
|-2--2-(2)----2--2-0-0---2----|
|-0--0-(0)----0---------------|
|
| Q  Q        Q        Q
|-----------------------------|
|----x-----------------x------|
|----x-----------------x------|
|----x-----------------x------|
|----x------------------------|
|-----------------------------|


                                    Verse 2
          |-3-| |3|   |3| |-3-|                  |3|
  A E E E E   S E S   E S E   S E    E E E E E E E S E   E E E S S E E E S S
|--0-0-0-------------0-----------||-----------5-3-----|---------------------|
|--0-0-0---------------0---------||-----5---3---3-----|---------------------|
|0h1-1-1-------1-------1---------||-----5---4---4-----|---7---------6-------|
|--2-2-2-----0-2-x---------------||-----5---5---------|---7-7-7-7---7-7-----|
|----------------x-------------2-||-3-3---------------|-5-5-7-8-9-7-7-7-----|
|--------3b4-----3b4-----3b4-5---||-------3-3-----3h5-|-----------5-5-5-5s7-|
|
|   Q   Q       Q         Q          Q   Q   Q   Q       Q   Q     Q   Q
|---------------------------------||-------------x-----|--------------------|
|-------x-------------------------||-----x-------x-----|-----x---------x----|
|-------x-----------------x-------||-----x-------x-----|-----x---------x----|
|-------x-----------------x-------||-----x-------x-----|-----x---------x----|
|-------------------------x-------||-------------------|-----x--------------|
|---------------------------------||-------------------|--------------------|


  E E E E E   S S +S  S S S    S  S S S S S S S E  S  S  +S  S  S   S
|---0-----------------------|------------------------------------------|
|---0-----------9-(9)-----9-|--9s=7-7-7-7-9-9-9-9\-9-10-(10)-9---------|
|-1---7---9-----9-(9)-9-9-9-|--9s=7-7-7-7-9-9-9-9\-9--9--(9)-9-----(0)-|
|-2---7---9---9-9-(9)-9-9-9-|--9s=7-7-7-7-9-9-9-9\-9-11-(11)-9---------|
|-------7-7-----------7-7---|------------------------------------------|
|-0-------------------------|----------------------------------12\-----|
|
| Q   Q   E a S S +S  S E      Q        Q       Q         Q
|-----x---------------------|------------------------------------------|
|-----x---------------------|------------------------------------------|
|-----x---------------------|-----------x-----------------x------------|
|-----x---------------------|-----------x-----------------x------------|
|---------------5-(5)---5---|-(7)-------x-----------------x------------|
|-----------5s7-------7-----|------------------------------------------|


            |3|   |3|
  E E E E E E S E E S   E E E A S S E S S S S  S   S    E E E E E S S +S  S E
|------------3-------|-----------------7-7-----------|-----0---0-----------0|
|----5-------3-------|---------------5-5-5-----------|-0---0-0-0-0-0-(0)-0-0|
|----5---4-------4-2-|---7-----------6-6-6-----------|-1-1-1-1-1-1-1-(1)-1-1|
|----5---5-5-----0-0-|-7-7-----------7---------------|-2-2---2-2-2-2-(2)-2--|
|3-3---3-------2-----|-5-5-7-7s9-------------(6)-(8)-|-2-------2------------|
|--------3-----------|-----------7-5-------5---------|-0-------0------------|
|
|                       ~
|                 |3|
| Q   Q   Q     E E S   Q   e   E   Q     Q             Q   Q   Q      Q
|-----x---------x-----|-------------------x-----------|---------------------|
|-----x---------x-----|-------------------x-----------|---------------------|
|-----x---------x-----|-----7-------------x-----------|-----x----------x----|
|-----x---------x-----|-----7-------------x-----------|-----x----------x----|
|---------------------|-5-----------------------------|-----x----------x----|
|-----------------3s7-|-------------------------------|---------------------|


    |-3-|       |-3--|              |3|
  A S S S       E    S E E E S    S E S A E   E E E E E S S  E  S S
|-2s4-4-4-------4----4-4-0------------------|-----------5-5p=3------|
|------------------------0-0-0----0-0-0-----|-----5-5-3-3-3-(3)-3---|
|-2s4-4-4-------4----4-4---1-1----1-1-1-----|-----5-5-4-4-4-(4)-4-2-|
|--------------------------2-2----2-2-2-----|-----5-5-5---------5-0-|
|--------------------------2--------2-------|-3-3---3---------------|
|--------------------------0--------0---3s5-|---------3-------------|
|
|                      ~
|               |-3--|
|   E     a    +S  S S Q   E Q            E   Q   Q   Q      E  S S
|-------------------------------------------|----------------x------|
|-------------------------------------------|-----x----------x------|
|---------2b3==(3)r2-0----------------------|-----x----------x------|
|----------------------2-----2tr0-----------|-----x----------x------|
|-------------------------------------------|-----------------------|
|-------------------------------------------|-------------------3s7-|


                  |3| |3|
  E E E S S E S S E S E S
|-------------------------|
|-3-3-3-3-3-2-2-2-2-2-2-2-|
|-2-2-2-2-2-2-2-2-2-2-2-2-|
|-0-0-0-0-0-2-2-2-2-2-2-2-|
|-----------0-0-0-0-0-0-0-|
|-------------------------|
|
| ~
| Q   Q     Q     Q
|-----------------x-------|
|-----------------x-------|
|-----x-----------x-------|
|-----x-----------x-------|
|-5-----------------------|
|-------------------------|


  Q  E S S E  S  S  +S   S     S   S    E E E E  E S S E   E
|----0--------------------------------|-----------------------|
|-0--0-----x--------------------------|---0-0-----------------|
|-1--1-1-1-x-12---------12b13---------|---1-1-1--0-1----------|
|-2--2-2-2-x-12-14-(14)-12b13-14------|---2-2-2--0-2---2---0--|
|-2--2---------------------------(14)-|---2---2--------2------|
|-0--0--------------------------------|-0-----0------0-0------|
|
| Q  Q     E  E      Q                  Q   Q    E E   S S E
|-------------------------------------|-----x-----------------|
|----x--------------------------------|-----x-----------------|
|----x-------12-----------------------|-----x-----------------|
|----x-------12-----14\---------------|-----x-----------------|
|-------------------------------------|------------7---9-7----|
|-------------------------------------|---------/9---------9\-|


  E E E S S E S S S S E     S  S  E S S E E S S +S  S E
|-----0-------5-5-5-5-5---|---------------5---7-(7)-5----|
|-----1---0---3-3-3-3-3---|---------------5-5-5-(5)-5-5\-|
|-----0-0-----4-4-4-4-4---|-7-(7)-7-7-7---6-6-6-(6)-6-6\-|
|-----------5-5-5-5-5-5---|-7-(7)-7-9-7-7-7-7-7-(7)-7-7\-|
|-3-3---------------------|-7h=9--9-----9----------------|
|-----------3-------------|---------------5--------------|
|
|                           ~~
| Q   Q     Q     E   S S   Q       Q     Q      Q
|-----x-----------x-------|---------x------------x-------|
|-----x-----------x-------|---------x------------x-------|
|-----x-----------x-------|---------x------------x-------|
|-----x-----------x-------|---------x------------x-------|
|-------------------------|-5----------------------------|
|---------------------3s7-|------------------------------|


  E E E S S E S S S S S S
|-----------0-0-0-0-0-0-0-|
|-9---9-----0-0-0-0-0-0-0-|
|-9---9-9-9-1-1-1-1-1-1-1-|
|-9-9-9-9-9-2-------------|
|-7-7-7-7-7-2-------------|
|-----0-----0-------------|
|
| W
|-------------------------|
|-------------------------|
|-------------------------|
|-------------------------|
|-------------------------|
|-0-----------------------|


  a  E  T T T T T T T T T T T T T T T T T T T T T T T T T T T T
|-2s=4--4-4-4-4-4-4-4-4-4-4-4-4-4-4-4-4-4-4-4-4-4-4-4-4-4-4-4-4---||
|-------3-3-3-3-3-3-3-3-3-3-3-3-3-3-3-3-3-3-3-3-3-3-3-3-3-3-3-3---||
|-2s=4--4-4-4-4-4-4-4-4-4-4-4-4-4-4-4-4-4-4-4-4-4-4-4-4-4-4-4-3---||
|-----------------------------------------------------------------||
|-----------------------------------------------------------------||
|-----------------------------------------------------------------||
|
|   +W
|-----------------------------------------------------------------||
|-----------------------------------------------------------------||
|-----------------------------------------------------------------||
|-----------------------------------------------------------------||
|-----------------------------------------------------------------||
|---(0)-----------------------------------------------------------||


  Gtr II
   ~~~~~~                                     ~~~~~~~~~~
                              |-----3------|
   Q        s  s   S   S     +T   +T   S   S  Q.
|----------12------------------------------------------|
|-15b17-------15--12-----------------------------------|
|----------------(12)-14b16r(14)-(14)-12p----12--------|
|-----------------------------------------14-----------|
|------------------------------------------------------|
|------------------------------------------------------|
|
| Gtr I
|  E     E  E      S   S      E               E  E S S
|------------------------------------------------5-----|
|-----------5------5---5------3---------------3--3-----|
|-----------5------5---5------4---------------4--4---4-|
|-----------5------5---5------5---------------5----5-5-|
|--3-----3--3------3---3-------------------------------|
|-----------------------------3---------------3----3---|

[ Tab from: http://www.guitartabs.cc/tabs/j/jimi_hendrix/hey_joe_tab_ver_8.html ]
 ~~~~~~~~
   Q        S  S     S   S      +S   S  E    S      +S   +S      +S
|----------12-12---(12)----------------------------------------------|
|-15b17-------15----12--------------12-------------------------------|
|-----------------------14b16==(16)----14---12b14==(14)r(12)b14-(14)-|
|--------------------------------------------------------------------|
|--------------------------------------------------------------------|
|--------------------------------------------------------------------|
|
|  E     E  E    A   S   S       E      S S  S       S    E
|--------------------------------------------------------------------|
|--------3--------------(0)------2------2-2--2-------2----2----------|
|--------2--2--------2--(0)------2------2-2--2-------2----2----------|
|--0--------2----2s==4-----------2------2-2--2-------2----2----------|
|--------------------------------0------0-0--0-------0----0----------|
|--------------------------------------------------------------------|


   ~~              PM              ~~~~~~~
   Q    S  S  E    S  S  S   S  a  E         E
|-----------------------------------------------|
|-----------------------------------------------|
|------12----12\------------------12b12.5---14\-|
|-14------14------------12-(14)-x---------------|
|--------------------14-----14------------------|
|------------------0----------------------------|
|
|  E E  S  S  S  S S  S  S   S    +S      S  E
|--0-------------------------0----(0)--------0--|
|--0---------------------0---0----(0)--------0--|
|--1-------0-----0------------------------------|
|--2----0-----2----2--2-------------------------|
|----2------------------------------------------|
|----0------------------------------------0-----|


                        ~~~~~
  Q      E       E E    Q.
|--------------------------------------|
|-------15b17==========15b17-----------|
|--------------------------------------|
|--------------------------------------|
|--------------------------------------|
|--------------------------------------|
|
| E S S  S     S E S S  S    S S S  E
|-0-0-0--4-----4-4-4-4--4----4-4-2-----|
|-0-0-0--3-----3-3-3-3--3----3-3-3-----|
|-1-1-1--4-----4-4-4-4--4----4-4-4-----|
|-2-2-2--------------------------------|
|-2-2-2--------------------------------|
|-0-0-0----------------------------12\-|


                                                   ~~
   S  S  S  S     +S   S  S  a     +S   S S  S  S  Q
|-12-12-12------------12-----------------------------------|
|-12-15-12-12b14-(14)-12-15------------12------------------|
|----------14----(14)-------14b15-(15)---------14-12-------|
|-----------------------------------------0-14-------------|
|----------------------------------------------------------|

|----------------------------------------------------------|
|
|  E     E         E      S         S   E    S  S  S S S S
|-----------------------------------------------5----5-3---|
|------------------5------5---------3---3----3--3--3-3-3---|
|------------------5------5---------4---4----4-----4-4-4---|
|------------------5------5---------5---5----5-------------|
|--3-----3---------3------3------------------------------0-|
|---------------------------------------3------------------|


                            ~~~~
  S  E       S  S  S       +E     S  E       S  S  S  a     +E
|--------------12-15b17r==(17)---12------------12---------------------|
|-----------12------------------------------15----15------------------|
|---14b16---------------------------14b16------------14b16-(16)-------|
|---------------------------------------------------------------------|
|---------------------------------------------------------------------|
|---------------------------------------------------------------------|
|
| E       S  S  E       a   S  S  E       E     S  S         S  S
|---------3--3--0-----------------------------------------------------|
|-3-------3--3--3-----------------2-----------------------------------|
|-2-------------2--------------2--2-----------------------------------|
|-0-------------0-------2s==4-----2-------4-----2---------------------|
|---------------------------------0----------------4---------2--------|
|---------------------------------------------------------------3b3.5-|


   ~~
                       |--3--|
   H          E  E     E     S  E
|---------------------------------|
|---------------------------------|
|-12------------------------------|
|------------14\-----/16----14-16-|
|--------------------/16----------|
|----------------0----------------|
|
|  E E E E A  E  S S  +S  S     E
|------0------------------------0-|
|------3------------------------0-|
|------4-4---------4--(4)-0-------|
|----------0h=2----0--(0)---------|
|----------------2----------------|
|--0-0----------------------------|


     ~~
         |-3--|       |-3--|
  A  E  +E    S   E   E A  S  E   E   Q        Q   Q   Q   Q
|--------------------------------------------|-------------x---|
|--------------------------------------------|-----x-------x---|
|---12-(12)----------------------------------|-----x-------x---|
|-x----------14\-----------------------------|-----x-------x---|
|-----------(14)\----------------------------|-----------------|
|-----------------------5s10s19--------------|-----------------|
|
|                             |3| |3| |3|
|    E   E        S S E       E S E S E S E    E E E E E E E E
|----0---0--------0---0-------0-0-0-0-0-0----|-----------------|
|----0---0--------0-0-0-------0-0-0-0-0-0----|-----------------|
|-----------------------------1-1-1-1-1-1-9\-|-----------------|
|---------------------------------2-2-2-2----|-----------------|
|-----------------------------------------7\-|-3---------2-3-4-|
|--------------------------------------------|---0-1-2-3-------|


                    E
  Q   Q   Q   Q     Q     H.
|-----------------|--------------------------------|
|-----x-------x---|--------------------------------|
|-----x-------x---|--------------------------------|
|-----x-------x---|-------0tr2---------------------|
|-----x-----------|--------------------------------|
|-----------------|--------------------------------|
|
| E E E E E E E E   E E A S    S S S S S S S S S E
|-----------------|---0--------------------------0-|
|-----------------|---0----------8-8-------------0-|
|-----------------|--------------7-7---7-7---9-----|
|-----------------|-9---7h9p===7-9-9-7-7-7-9-9-9---|
|-5---------4-5-6-|-7------------------------------|
|---2-3-4-5-------|-0------------------------------|


  +H                  +H
|-------------------------------------||
|-------------------------------------||
|-------------------------------------||
|-(0)-----------------(0)-------------||
|-------------------------------------||
|-------------------------------------||
|
|  T S. S S S S S T T  T S. E S S E
|-------------------------------------||
|--9s7--9-9-7-9-9---------------------||
|--9s7--9-9-7-9-9-9-9--7h9--9-7-9-----||
|--9S7--9-9-7-9-9-9-9--7-9--9-7-9-----||
|---------------------------------7\--||
|-------------------------------------||


 Verse 3
  Gtr I
  E  S S E E S  S  S S S S E
|--------8-8-----------7-7-----|
|--------8-8---------8-8-8-----|
|----9-9-----7-(7)-7---7-7-----|
|---10-------7h=9------9-9-9\--|
|------------------------------|
|-0----------------------------|
|
| Gtr II
| Q      Q   Q         E   S S
|--------x-------------x-------|
|--------x-------------x-------|
|--------x-------------x-------|
|--------x-------------x-------|
|-x----------------------------|
|--------------------------3s5-|


                    |3|
  E S S E  E  E S S E S E   E E E S S S S E E S S
|-------------------5-----|---0-0-0-0-0-0-0-0-0----|
|-------7-------5-5-5---x-|---0-0-5-3-5-3-5-0-0----|
|-----7-7--7----6-6-6---x-|-------------------1-1--|
|---7-7-7--7--7-7-7-7-7-x-|---------------------2--|
|-5-5-5-5--5--------------|------------------------|
|-------------5-5---------|------------------------|


|
| ~~~~
| E E   E  E  Q     Q       Q   Q     Q     Q
|-------------------x-----|-----x------------------|
|-------------------x-----|-----x-----------x------|
|-------7-----------x-----|-----x-----------x------|
|----------7--------x-----|-----x------------------|
|-5-5---5-----------------|------------------------|
|---------(5)-------------|------------------------|


  E E E   S    S S S S S S S S  S    E E E E E S S S S S S
|-----0----------0-0---0-0-0-0-----|---------3-3-5-5-----3---|
|-----0---0----0-3-5-3-3-3-3-3-----|---------3-3-3-3-3-3-3---|
|---1----------------4-------------|-----5---4-----4-4-4-----|
|-2-2------------------------------|-----5-5-5---------------|
|-2-2--------------------------(0)-|-3-3---3-----------------|
|-0-0------------------------------|---------3---------------|
|
|                                                      |-3-|
| Q   S S E      E   E   Q           Q   Q   Q     E   E   S
|----------------------------------|-------------------------|
|----------------------------------|-----x---------x---------|
|---------7tr9-----------x---------|-----x---------x---------|
|-----7s9----------------x---------|-----x---------x---------|
|------------------------x---------|-----x-------------------|
|----------------0---0-------------|-------------------3s==7-|


  S  S  S S S S S  S  E S S S S S S   E E E E E E E   E
|---------------------------5-5-5-5-|-----0-0-0-0-0---0----|
|---------7---7---------5-5-5-5-5-5-|-----0-0-0-0-0---0----|
|-------7-7-7-7-7-------6-6-6-6-6-6-|---1-1---1-1-1---1----|
|-7-(7)-7---7---7-(9)-7-7-7-7-7-7-7-|---2-2---2-2-2---2----|
|-7h=9------9-----------------------|---2------------------|
|---------------------5-------------|-0-0------------------|
|
| ~~
| Q         e   E     Q     Q         Q   Q   Q   S S E
|---------------------------x-------|-----x----------------|
|-----------7---------------x-------|-----x----------------|
|-----------7---------------x-------|-----x-----------7tr9-|
|-----------7---------------x-------|-----x-------7h9------|
|-5---------------------------------|----------------------|
|-----------------------------------|----------------------|


   S  S  S  S  S  S  S     S   S    S  S  S  +S   S  S  S
|---------------------------------------------------------|
|---------------------------------------------------------|
|-------12-12-14-12-------12-------12------------12-------|
|-------12-12-14-12-14--------14---------12-(12)-12-------|
|-12h14-------------------------------14-12-(12)-12-14p12-|
|---------------------------------------------------------|
|
|  Q           E     E        +E       E      Q
|---------------------------------------------------------|
|-------------------15-------(15)\------------------------|
|-------------------14b16----(16)\------------------------|
|---------------------------------------------------------|
|---------------------------------------------------------|
|---------------------------------------------------------|


  E E E S S S S E E E
|---------------5-3-----|
|---5-----------3-3-----|
|---5-5---------4-4-----|
|---5-5---------5-5-----|
|-3-3-3-------------0---|
|-------2-2-3-3-3-------|
|
| Q   Q     Q     E S S
|-----x-----------------|
|-----x-----------------|
|-----x-----------------|
|-----x-----------------|
|-----------------------|
|-------------------3s7-|


                                         |3|      |3-| |3|   |-3--|
  E   S S  S  S S S E E E S S   E E E. S E S A   +E  S E S A E    S
|---------------------5-5-----|-0-0-0-------------------------------|
|-----7-7--7----------5-5-----|-0-0-0------0----------------------0-|
|-----7-7--7--7-------6-6-----|-----1-------------------------------|
|-----9-9--7--7-------7-7-----|-----2----------------2-0---0h2------|
|-5-----------9-7-------------|--------2-----------------2----------|
|-----------------8-5-----5p0-|-----0----0---3b4-(4)----------------|
|
|     ~~~~~~~~
|                                                      |3|
| S S E   +E    E   Q   Q       Q   Q    Q             E S   E
|-----------------------------|-------------------------------------|
|-----------------------x-----|-------------------------------------|
|-----------------------x-----|-----x-------------------------------|
|-----------------------x-----|-----x------------------------0tr2---|
|-5---5---(5)---7-------------|-----x------------------0h2----------|
|---7---------------5---------|-------------------------------------|


  E E E S S E S S E E   E E E E E E E E     E   E  E E E E E E
|-2---0-----0---------|-------------------|--------------------|
|-0-0-0---0-0---0-0-0-|-------------------|--------------------|
|---1---1-----1---1-1-|-------------------|--------------------|
|-------------2---2-2-|-------------------|--------------------|
|---------------------|-3---------2-3-4---|-5------------4-5-6-|
|-------------0-------|---0-1-2-3---------|-----2--3-4-5-------|
|
|                                               ~~
| Q   Q     Q     Q     Q   Q   Q   E S S   S S Q.     Q   Q
|-----x-----x-----x---|-----x-------x-----|----------------x---|
|-----x-----x-----x---|-----x-------x-----|----------------x---|
|-----x-----------x---|-----x-------x-----|----------------x---|
|-----x-----------x---|-----x-------x-----|----------------x---|
|---------------------|-------------------|-5h7p5--------------|
|---------------------|---------------3s7-|--------------------|


  E S S S S S S S S E S S E
|-------------------------0-|
|---9-9-9s7-7-7-------9---0-|
|---9-9-9s7-7-7-----9-9-9---|
|-9-9-9-9s7-7-7-7h9-9-9-9---|
|-7-------------------------|
|-0-------------------------|
|
| Q     Q       Q     Q
|---------------------x-----|
|-------x-------------x-----|
|-------x-------------x-----|
|-------x-------------x-----|
|-------x-------------------|
|---------------------------|


   S   S  S  S  E S  S  +S  S  S        S    S  S E
|-------------------------------------------------------|
|-----10-10--9--9----9--(9)-9--9--------9---------------|
|--9------9--9--9-9--9--(9)-9--9--------9----9--9-9\----|
|--9h=11-------12---12-(12)---12-------12---11-11-9\----|
|-------------------------------------------------------|
|-------------------------------------------------------|
|
|                              |----3-----|
|  E      E     Q        E     S   +S     S  E    T T S
|---------------x---------------------------------------|
|---------------x---------------------------------------|
|---------------x--------------2b3r(2)p===0-------------|
|---------------x----------------------------2----2p0h2-|
|-------------------------------------------------------|
|-(0)----(0)--------------------------------------------|


  E E  E S S E S S S S S S   E E E E E S S E S S
|------8-------5-3-5-3-----|---------------------|
|------8-----3-3---3-3-5-3-|---------5-5-5-5-----|
|------9---4-4-4---4-4-4-4-|---7-----6-6-6-6-----|
|-----10---5-5-5---5-5-5-5-|---7-7-7-7-7-7-7-----|
|--------------------------|-5---7-9-------------|
|-8-8----3---3-3-----------|---------5-5-5-5-3p0-|
|
| Q    Q     Q     E   E     Q   E E Q     Q
|------x-------------------|---------------------|
|------x-------------------|---------------x-----|
|------x-------------------|-----7---6-----x-----|
|------x-------------------|-----7-7-------x-----|
|--------------------------|-5-------------------|
|------------------3s==7---|---------------------|


  Q  Q  Q  +S  S S S   +E  S S E E         E   E E  E    E E E E E E E E
|----0--0--(0)-----0-|-(0)-----0-0---------0---0-0-----|--------------------|
|-0--0--0--(0)---0---|-----0-0-0-0---------0---0-0-----|--------------------|
|-1--1--1--(1)-1-----|-----1-1-2-1---------2---1-2-----|--------------------|
|-2------------------|-----2-2-2-2---------2---2-2-----|--------------------|
|-2------------------|---------------------------------|-3---------2-3-4----|
|-0------------------|-----------------------------12\-|---0-1-2-3----------|
|
| Q  Q  Q   Q           Q      Q    a     +Q     Q       Q   Q   Q   E S S
|----x------x--------|---------------------------------|-----x-------x------|
|----x------x--------|-------------15b17-(17)\---------|-----x-------x------|
|----x------x--------|---------------------------------|-----x-------x------|
|----x------x--------|---------------------------------|-----x-------x------|
|--------------------|---------------------------------|--------------------|
|--------------------|---------0-----------------------|---------------5s7--|


                                                        |3|
  E E E E E E E E   Q  E. S a E S S +S  S S S   Q  E. S E S E   S    S S S
|-----------------|-0--0--0-2s4-0-0-(0)---0---|----0--0-0-0-----0----0------|
|-----------------|-0--0--------0-------0---0-|----0--0-0-0-----0----0------|
|-----------------|-1-------2s4---------------|----1--2-2-2-2b4-2----1------|
|-----------------|-2-------------------------|----2------------0------2p0--|
|-5---------4-5-6-|-2-------------------------|----2------------------------|
|---2-3-4-5-------|-0-------------------------|-0--0------------------------|
|
| Q   Q   Q   Q     Q  Q      Q      Q          Q  Q    Q       Q
|-----x-------x---|----x----------------------|----x------------------------|
|-----x-------x---|----x------x------x--------|----x------------------------|
|-----x-------x---|----x------x------x--------|----x------------2tr4--------|
|-----x-------x---|----x----------------------|----x------------------------|
|-5-------0-------|---------------------------|-----------------------------|
|-----------------|-0-------------------------|-----------------------------|


 Outro - Fade Out
  E E E E E E E E     E E E E E E E E   Q  Q  H
|-------------------|-----------------|------------*|
|-------------------|-----------------|------------*|
|-------------------|-----------------|------------*|
|-------------------|-----------------|------------*|
|-3---------2-3-4---|-5---------4-5-6-|-7----------*|
|---0-1-2-3---------|---2-3-4-5-------|------------*|
|
| Q   Q   Q   E S S   Q   e E Q   Q     W
|-----x-------x-----|-------------x---|------------*|
|-----x-------x-----|-------------x---|------------*|
|-----x-------x-----|-----7-------x---|------------*|
|-----x-------x-----|-----7-------x---|------------*|
|-------------------|-5---------------|------------*|
|---------------5s7-|-----------------|------------*|
Comments