Jimi Hendrix - Hey Joe Chords & Tabs

 

Hey Joe Chords & Tabs

Jimi Hendrix Chords & Tabs

Version: 6 Type: Tab 0 ratings
1 star 2 stars 3 stars 4 stars 5 stars
comments

Hey Joe Tab

   
Tabbed by: Adam

b-bend
\-slide
*-palm mute
~-vibrato
      ~~~                          ~~~     ~~~~
E--------12-12-----------------------|----------12-12-12---------------------
B----15b----15-12--------------------|----15b------15-12------12-------------
G--------------12-14b---14-12-----12-|-------------------14b-----14--12\14\12
D------------------------------14----|---------------------------------------
A------------------------------------|---------------------------------------
E------------------------------------|---------------------------------------
[ Tab from: http://www.guitartabs.cc/tabs/j/jimi_hendrix/hey_joe_tab_ver_6.html ]
                    *              ~~~                      ~~~~~~~~
E-----------------------------------------|----------------------------------
B-----------------------------------------|--15b----------15b----------------
G--------12----12\----------------12------|--12------------------------------
D--14-------14-------------12--14-12---14\|----------------------------------
A---------------------\14------14---------|----------------------------------
E-------------------0---------------------|----------------------------------

                                                                ~~~
E--12-12-12-------12------------------------------|--------12-15b---15--12---
B--12-15-12--12---12--15------12------------------|------12------------------
G------------14-----------14------------14--12----|--14b------------------14b
D---------------------------------0--14-----------|--------------------------
A-------------------------------------------------|--------------------------
E-------------------------------------------------|--------------------------

E-----12-------------------------------------|----------------| 
B--15----15----------------------------------|----------------|
G-----------14-----12------------------9--11-|-12-------------|
D-------------------------14\-----\11--------|------14\-------|
A--------------------------------------------|----------------|
E-----------------------------0--------------|----------\20\--|
Comments