Jimi Hendrix - Hey Joe Chords & Tabs

 

Hey Joe Chords & Tabs

Jimi Hendrix Chords & Tabs

Version: 5 Type: Tab 0 ratings
1 star 2 stars 3 stars 4 stars 5 stars
comments

Hey Joe Tab

Ok, I made this tab, because someone who has acoustic guitar, and can?t play Hey Joe solo with it, can
play the same solo, just another position.
But anyway, here it is:

Whole song goes like:  C G D A E  (I think so), and the solo goes in Em blues (I think so)

 solo:
e-----------0--------------------------------0---------------------------------------------------------|
B--3/5---------3--0------------------3/5--------3--0--------------------------------------------0------|
G---------------------2/4-----0-----------------------2/4--4--2--0--2--0----0-----0-------------0------|
D--------------------------2---------------------------------------------2-----2----------0--2-----2---|
A-------------------------------------------------------------------------------------1/2--------------|
E------------------------------------------------------------------------------------------------------|
[ Tab from: http://www.guitartabs.cc/tabs/j/jimi_hendrix/hey_joe_tab_ver_5.html ]
e--------------0--0--0-------0--0--0-----------------------------0--3/5--3--0----------0---------------|
B--3/5--3/5----0--3--0-------0--3--0--------------------------0---------------------3------------------|
G-----------------------2/4-----------2/4--------2--0----2/4-------------------2/4--------2/4--2--0----|
D------------------------------------------0--2------------------------------------------------------2-|
A------------------------------------------------------------------------------------------------------|
E------------------------------------------------------------------------------------------------------|

e---------------------------------------------------|
B-------------0-------------------------------------|
G-------------0-------------------------------------|
D-------0--2-----2----------------------------------|
A--1/2----------------------------------------------|
E---------------------------------------------------|

 end riff:
e------------------------------------------------------|
B------------------------------------------------------|
G------------------------------------------------------|
D------------------------------------------------------|
A--3--------------2--3--4--5--------------4--5--6--7---|
E-----0--1--2--3--------------2--3--4--5---------------|

If you have any comments or questions send them to:
sampo.riikonen@jippii.fi
Comments