Jimi Hendrix - Good Feeling Chords & Tabs

 

Good Feeling Chords & Tabs

Jimi Hendrix Chords & Tabs

Version: 1 Type: Bass Tab 0 ratings
1 star 2 stars 3 stars 4 stars 5 stars
comments

Good Feeling Bass Tab

Good Feeling (Good Times) - Jimi Hendrix

This tab shouldn't be confused with Electric Ladyland's "Come On (Let The Good Times Roll)".
This is said to have either been played with Lonnie Youndblood or Jim Morrison.
Each idea is false.  The "Experience Hendrix Magazine"  
said Jimi didn't play this song and it's a fake, but who cares...it's a nice song anyway. 

p=pull off
h=hammer on
all pairings of two 1's together are elevens.
[ Tab from: http://www.guitartabs.cc/tabs/j/jimi_hendrix/good_feeling_btab.html ]
     x6              
G|----------------|----------|--------------|-------------------|-----------------|
D|----------------|----------|--------------|---------7-9p7---7-|9--9-9h11p9-9p7-7|
A|9--9-----7-9p7-7|9---9---7-|---1--4-7-8-9-|-----7h9-------9---|---------------9-|
E|-----7h9------9-|--7---9---|2-------------|7--7---------------|-----------------|

G|----------------|-----------------|----------------|-------------|----------------|
D|----------------|------9h11p7--7--|---------9-1197-|-------------|----------------|
A|9--9-----7-9p7-7|9--7---------9-9-|-----9h11-------|---6--7--78--|9--9-----7-9p7-7|
E|-----7h9------9-|-----------------|9--9------------|7------------|-----7h9------9-|

G|----------------|
D|-------9h11-7---|
A|9--9-99-------7-|
E|----------------|

For the rest of the verses, only use that first riff twice intead of six times.
Each verse is a little different, but the above will work for all.  It's 12-bar blues.

Tabbed by Achilles (blue_sincere@hotmail.com)
Comments