Jimi Hendrix - Foxy Lady Chords & Tabs

 

Foxy Lady Chords & Tabs

Jimi Hendrix Chords & Tabs

Version: 4 Type: Tab 0 ratings
1 star 2 stars 3 stars 4 stars 5 stars
comments

Foxy Lady Tab

Artist:Jimi Hendrix
Song:Foxy Lady


Nat.Tuning

Heavy fuzz face

Intro:
increase volume until feedback peaks
---------------------
-10------------------
-10(11)~~~~~~~~--11\-
---------------------
---------------------
---------------------

Verse riff:
  F#7#9   
||----5------5------5-5------------||
||----5------5------5-5------------||
||---------------------------------||
||-------4-4-----------------------||
||--------------------------2-3-4--||
||2-2-----------2-2-----5----------||

 +
-------------------------------
--------------------14---------
-16(18)-14~--16(18)----14~-----
---------------------------16\-
-------------------------------
-------------------------------

chorus riffs:
*                 ** 
---------------|------------------
---------------|------------------
---------------|------------------
-----4-----2h4-|------4-6p4----4--
-4h6---2h4-----|--4/6--------6----
---------------|---------------2--
[ Tab from: http://www.guitartabs.cc/tabs/j/jimi_hendrix/foxy_lady_tab_ver_4.html ]
Solo:
-------------------------------------------------------------------------------------
-17(19)~(19)17-----------------------------------------------------------------------
---------------14~-14\--/9(11)~-9p7-----------9-11(13)-11(13)--11~~--11-9h11p9----9~-
------------------------------------7~----/11----------------------------------11----
----------------------------------------9--------------------------------------------
-------------------------------------------------------------------------------------

-------------------14------------14----14----14-17(19)-17~--14----14-16-14-----------------
----------------14----17-17(19)~----17----14-------------------17----------17-14-----14-17-
-9~9~-----16(18)--------------------------------------------------------------16(18)-------
------11-----------------------------------------------------------------------------------
-------------------------------------------------------------------------------------------
-------------------------------------------------------------------------------------------

---------------------------------------------14----14-----------14----14--------14--
-14-----14-17-14-----14------14-17(19)~--17~----17----14-----14----17-14-14-----14--
-16(18)-------16(18)-16(18)---------------------------16(18)-------------16(18)-----
------------------------------------------------------------------------------------
------------------------------------------------------------------------------------
------------------------------------------------------------------------------------

--------------------------------------
--------------------------------------
-16p14----14--------------------------
-------16----16p14----14--------------
-------------------16----16\14----14--
-------------------------------17-----
--------------------------------------


(Don't Play The Solo With Your TEETH!)
Comments