Jimi Hendrix - Foxy Lady Chords & Tabs

 

Foxy Lady Chords & Tabs

Jimi Hendrix Chords & Tabs

Version: 2 Type: Bass Tab 0 ratings
1 star 2 stars 3 stars 4 stars 5 stars
comments

Foxy Lady Bass Tab

Tabbed by Tom Bointon
Jimi Hendrix: Foxy Lady

This part plays just after the short lead intro

Riff:
G:-----------------------------| 
D:----4-----4------4-----------| 
A:----------------------2-3-4--|
E:--22----22----22----2--------|
[ Tab from: http://www.guitartabs.cc/tabs/j/jimi_hendrix/foxy_lady_btab_ver_2.html ]
Chourus:
G:-----------------------------| 
D:-2222----1-2------44444444---| 
A:------2-2--------------------|
E:-----------------------------|

G:-----------------------------| 
D:-2222---1-2-3----------------| 
A:------2----------------------|
E:-----------------------------|

Riff x 6
Chourus x 1
(Foxey Lady Part; short break)
Riff x 6
Chourus x 1
(Foxey Lady Part; short break)
Riff x 4 (While Hendrix plays solo)
Chourus x 1
(Foxey Lady Part; short break)
Riff x 6
Comments