Jimi Hendrix - Firepile Chords & Tabs

 

Firepile Chords & Tabs

Jimi Hendrix Chords & Tabs

Version: 1 Type: Chords 0 ratings
1 star 2 stars 3 stars 4 stars 5 stars
comments

Firepile Chords

   
#-----------------------------PLEASE NOTE-------------------------------------#
#This OLGA file is the author's own work and represents their interpretation  #
#of the song. You may only use this file for private study, scholarship, or   #
#research. Remember to view this file in Courier, or some other monospaced    #
#font. See http://www.olga.net/faq/ for more information.                     #
#-----------------------------------------------------------------------------#

Subject: h/hendrix_jimi/firepile.crd

[lyrics removed -- see diet-olga policy]



     E        A        B
e|-------|----5---|----7---|
B|-------|----5---|----7---|
G|---1---|----6---|----8---|
D|---2---|----7---|----9---|
A|---2---|----7---|----9---|
E|-------|----5---|----7---|

intro:

E A B A

E
   This is him...
A  B  A  E  A  B  A

E               A   B   A
Call him tied...
E     A      B
A     E
A     B      A
E     A      B     A

         E
Don't give away...
A
B     A
E     A
B     A

E
The sidewalk's...
A     B      A 
E
A     B      A     E     A
B     A      E
[ Tab from: http://www.guitartabs.cc/tabs/j/jimi_hendrix/firepile_crd.html ]

e-------------------------------------------------------
b-------------------------------------------------------
g-------------------------------------------------------
d-------------------------------------------------------
a--7---
e-------------------------------------------------------

e||-----------------------------------------------------
b||-----------------------------------------------------
g||.----------------------------------------------------
d||.----------------------------------------------------
a||-----------------------------------------------------
e||------0-3-0-3-3s5-----0-0-0-3s12-12------------------

e------------------------------------------------------|
b------------------------------------------------------|
g-----------------------------------------------------.|
d-----------------------------------------------------.|
a-----------0-2-2-2s10-12-12-10-7--------|
e---0-3-0-3--------------------------------------------|

e-------------------------------------------------------
b-------------------------------------------------------
g----------------------------------------------1--------
d------5-------5-5-7-7-9-9-7-5s2--2s9-7-5------2--------
a--7-7---7---7----------------------------5----2--------
e-------------------------------------------------------

E             A
Your baby's...
B       A       E
A
B       A       E       A
B       A       E       A
B       A       E




e---------------------------------------------------------
b---------------------------------------------------------
g---------------------------------------------------------
d---------------------------------------------------------
a--<7>-5-7----5--<7>-5-7----5--<7>-5-7-7s10-9-10-9-5-5-7--
e-----------7-------------7-------------------------------
    ^
    
Comments