Jimi Hendrix - Fire Chords & Tabs

 

Fire Chords & Tabs

Jimi Hendrix Chords & Tabs

Version: 4 Type: Tab 0 ratings
1 star 2 stars 3 stars 4 stars 5 stars
comments

Fire Tab

                                      FIRE
                   As recorded by The Jimi Hendrix Experience
                   (From the 1967 Album ARE YOU EXPERIENCED ?)

Transcribed by www.mikesguitarsite.co.uk

 Intro
  Q=156
 4/4
  Gtr I
|-----|----------------|----------------|
|-----|----------------|----------------|
|-13--|-12\------10s12-|------------13--|
|-----|----------------|-12-12\---------|
|-11--|-10\-------8s10-|------------11--|
|-----|----------------|-10-10\---------|


|----------------|--------------------||------------|----------------||
|----------------|--------------------||o-----------|---------------o||
|-12\------10s12-|--------------------||------------|----------------||
|----------------|-12-12\-------10-12-||--12--------|---------10-12--||
|-10\-------8s10-|-----------12-------||o-----------|------12-------o||
|----------------|-10-10\-------------||------------|----------------||


   Verse
    $
||------------|---------------|-----------|----------------|
||o-----------|---------------|-----------|----------------|
||------------|---------------|-----------|----------------|
||--12--------|---------10-12-|-12--------|---------10-12--|
||o-----------|------12-------|-----------|------12--------|
||------------|---------------|-----------|----------------|


|-----------|---------------|-----------|-------------------------------------||
|-----------|---------------|-----------|-13-----(13)-(13)--------------------||
|-----------|---------------|-----------|-12b14==(12)-(12)r-------------------||
|-12--------|---------10-12-|-12--------|------------------------12-14p12-----||
|-----------|------12-------|-----------|--------------------/14----------14--||
|-----------|---------------|-----------|-------------------------------------||


 Chorus
|-----10--12-10--10-|-(10)----------------|-----10--12-10--10-|
|-----10--10-10---8-|--(8)----------------|-----10--10-10---8-|
|-----11--11-11---9-|--(9)----------------|-----11--11-11---9-|
|-----12---------10-|-(10)--------10-12---|-----12---------10-|
|-------------------|---------/12---------|-------------------|
|-10----------------|-------------------8s|=10----------------|


|-(10)----------------|-----10--12-10--10-|-(10)--------------------|
|--(8)----------------|-----10--10-10---8-|--(8)--------------------|
|--(9)----------------|-----11--11-11---9-|--(9)----------10--------|
|-(10)--------10-12---|-----12---------10-|-(10)----10h12-----------|
|---------/12---------|-------------------|------------------10-11--|
|-------------------8s|=10----------------|-------------------------|


                     1.
             To Coda
|-----10--12-10--10-|-(10)-----------------|-----------|
|-----10--10-10---8-|--(8)-----------------|-----------|
|-----11--11-11---9-|--(9)-----------------|-----------|
|-----12---------10-|-(10)--------10-12-12-|-12--------|
|-12----------------|---------/12----------|-----------|
|-------------------|----------------------|-10--------|


|---------------|-----------|----------------||
|---------------|-----------|---------------o||
|---------------|-----------|----------------||
|---------10-12-|-12--------|---------10-12--||
|------12-------|-----------|------12-------o||
|---------------|-----------|----------------||


                      Bridge
  2.
|-(10)--10-------8--||-----------|---------|
|--(8)---8-----8----||-----------|---------|
|--(9)---9---9------||-----------|---------|
|-(10)--10--10------||-----------|---------|
|-------------------||-12--------|-(12)----|
|-------------------||-10--------|-(10)----|


|-----------|------------------|----------|
|-----------|------------------|----------|
|-----------|------------------|-6--------|
|-----------|------------------|-7--------|
|-10--------|-(10)----(10)---7-|-7--------|
|--8--------|--(8)-----(8)---5-|-5--------|


|----------------|-----------|-----------------||
|----------------|-----------|-----------------||
|-(6)----(6)-----|-----------|-----------------||
|-(7)----(7)-----|-10--------|-(10)------------||
|-(7)----(7)-----|-10--------|-(10)------/14---||
|-(5)----(5)---0-|--8--------|--(8)------------||


 Guitar Solo
                                                     ~~
|-------------------------------------------------|-----------|
|-15b17==(15)-(15)r--15b17-(15)-15b17==(15)r=(15)-|-----------|
|-------------------------------------------------|-12--------|
|-------------------------------------------------|-----------|
|-------------------------------------------------|-----------|
|-------------------------------------------------|-----------|


          ~~~~                              ~~~~~~~~~~
|----------------------------------------------|-----------------------|
|-15b17-(15)----15b17==(15)-15--12-------------|-----------------------|
|----------------------------------14b16==(14)-|-(14)------(14)r(14)---|
|----------------------------------------------|-----------------------|
|----------------------------------------------|-----------------------|
|----------------------------------------------|-----------------------|

[ Tab from: http://www.guitartabs.cc/tabs/j/jimi_hendrix/fire_tab_ver_4.html ]
           ~~~~~~~~~                         ~~~~~~~~~~~
|-----------------------------------------------|------------------|
|-15b17==(15)-(15)r--15b17-(15)-15--------------|------------------|
|-----------------------------------14b16==(14)-|-(14)r=====(14)\--|
|-----------------------------------------------|------------------|
|-----------------------------------------------|------------------|
|-----------------------------------------------|------------------|


           ~~~~~~~~                                      ~~
|-----------------------------------------------------|-------------||
|-15b17==(15)-(15)--15pb17r(15)-----------------------|-------------||
|-------------------------------14b16-(14)-14b16-(14)-|-12----------||
|-----------------------------------------------------|-------------||
|-----------------------------------------------------|-------------||
|-----------------------------------------------------|-------------||


|----------------|----------------|----------------|---------------------|
|----------------|----------------|----------------|---------------------|
|-12\------10s12-|------------13--|-12\------10s12-|---------------------|
|----------------|-12-12\---------|----------------|-12-12\-------10-12--|
|-10\-------8s10-|------------11--|-10\-------8s10-|-----------12--------|
|----------------|-10-10\---------|----------------|-10-10\--------------|


                                         D.S. al Coda
|-----------|---------------|-----------|---------------||
|-----------|---------------|-----------|---------------||
|-----------|---------------|-----------|---------------||
|-12--------|---------10-12-|-12--------|---------10-12-||
|-----------|------12-------|-----------|------12-------||
|-----------|---------------|-----------|---------------||


                                  Outro - Solo
  &
|-(10)--10-10-------------------||-----12--13-12---|
|--(8)---8--8-------------------||-----12--12-12---|
|--(9)--------------------------||-----13--13-13---|
|-(10)--------------12h14-12----||-----14----------|
|-------------12h14----------14-||-----------------|
|-------------------------------||-12--------------|


|---------------------------------------------------------|
|--15b17-(15)-15b17-(15)-15b17-(15)-15b17-(15)-15b17-(15)-|
|---------------------------------------------------------|
|---------------------------------------------------------|
|---------------------------------------------------------|
|---------------------------------------------------------|


           ~~~~~
|---------------------|
|-15b17==(15)r--------|
|---------------------|
|---------------------|
|---------------------|
|---------------------|


                                                               ~~~~
|----------------------------------------------------------|---------|
|--15b17-(15)-15b17-(15)-15b17-(15)-15b17-(15)-15b17==(15)r|=(15)----|
|----------------------------------------------------------|---------|
|----------------------------------------------------------|---------|
|----------------------------------------------------------|---------|
|----------------------------------------------------------|---------|


                            ~~~~
|-----------------------|-------------|
|--15-15-15-15b17==(15)r|=(15)--------|
|-----------------------|-------------|
|-----------------------|-------------|
|-----------------------|-------------|
|-----------------------|-------------|


|--------------------------------------------|
|--15b17==(15)-15-15b17==(15)-15-15b17==(15)-|
|--------------------------------------------|
|--------------------------------------------|
|--------------------------------------------|
|--------------------------------------------|


           ~~~~                                                        ~~
|--------------------|----------------------------------------------|-------|
|-15b17==(15)--------|--15b17==(15)-15-15b17==(15)-15b17==(15)r(15)-|-------|
|--------------------|----------------------------------------------|-12----|
|--------------------|----------------------------------------------|-------|
|--------------------|----------------------------------------------|-------|
|--------------------|----------------------------------------------|-------|


|--------------------------------------------------------------|
|--15b17==(15)-15b17==(15)-15b17==(15)-15b17==(15)-15b17==(15)r|
|--------------------------------------------------------------|
|--------------------------------------------------------------|
|--------------------------------------------------------------|
|--------------------------------------------------------------|


    ~~~~
|-------------|--------------------------------------|
|-(15)--------|--15b17==(15)-15-15b17==(15)-15-15-13-|
|-------------|--------------------------------------|
|-------------|--------------------------------------|
|-------------|--------------------------------------|
|-------------|--------------------------------------|


   ~~
|----------------|-----------------------------------------------------|
|----------------|--15b17==(15)-15b17==(15)-15b17==(15)-15b17==(15)-15-|
|-10------(10)\--|-----------------------------------------------------|
|----------------|-----------------------------------------------------|
|----------------|-----------------------------------------------------|
|----------------|-----------------------------------------------------|


           ~~~~
|----------------*|
|-15b17==(15)----*|
|----------------*|
|----------------*|
|----------------*|
|----------------*|



***************************************************************************************
* Generated using Power Tab Editor by Brad Larsen - http://powertab.guitarnetwork.org *
***************************************************************************************
Comments