Jimi Hendrix - Fire Chords & Tabs

 

Fire Chords & Tabs

Jimi Hendrix Chords & Tabs

Version: 3 Type: Tab 0 ratings
1 star 2 stars 3 stars 4 stars 5 stars
comments

Fire Tab

ARTIST:JIMI HENDRIX
AULBUM:ARE YOU EXPERIENCED?
SONG:FIRE
JIMI HENDRIX:ROCK


   intro(CLEAN)
 e/--------------------------------------------------------------
 B/--------------------------------------------------------------
 G/-13-12--10/12--------13-12-10/12------------------------------
 D/--------------12-12--------------12-12------------------------
 A/-11-10--8/10---------11-10-8/10-------------------------------
 E/--------------10-10--------------10-10------------------------


   veres(CLEAN)
 e/--------------------------------------------------------------
 B/--------------------------------------------------------------
 G/--------------------------------------------------------------
 D/----10-12-12----------10-12-12--------------------------------
 A/-12----------------12-----------------------------------------
 E/--------------------------------------------------------------

 chorus(CLEAN)
 e/---------10----12---12----10-----10-10-12--10--10-------------
 B/---------10----10---10----8------10-10-10--10--8--------------
 G/---------11---------------9------11----11--11--9--------------
 D/-12------12---------------10-----12------------10-------------
 A/--------------------------------------------------------------
 E/-10------10---------------------------------------------------
    LET ME     STAND_NEXT TO YOUR                                   

  BRIDGE(DIST.)
 e/-10-------------------------10-----------------------5------------
 B/-10-------------------------8------------------------5------------
 G/-11-------------------------9------------------------6-------9----
 D/-12-------------------------10-----------------------7-------10---
 A/-----------------------------------------------------X-------10---
 E/-10-------------------------8------------------------5-------8----
(USE THUMB) AH MOVE OVER ROVER   AND LET JIMI TAKE OVER...
[ Tab from: http://www.guitartabs.cc/tabs/j/jimi_hendrix/fire_tab_ver_3.html ]
  SOLO(DIST.)                       ~~~~~~~~~~~~~~~                       
 e/---------------------------------------------------------------
 B/-15b(FULL)-15b(FULL)-15b(FULL)---------------------------------
 G/-------------------------------12------------------------------
 D/---------------------------------------------------------------
 A/---------------------------------------------------------------
 E/---------------------------------------------------------------
                                 ~~~~~~~~~~~~~~~~~~~~
 e/---------------------------------------------------------------
 B/-15b(FULL)-15b(FULL)-15-12-------------------------------------
 G/---------------------------14b(FULL)---------------------------
 D/---------------------------------------------------------------
 A/---------------------------------------------------------------
 E/---------------------------------------------------------------
                             ~~~~~~~~                                
 e/-------------------------------------------------------------15b(FULL)
 B/-15b(FULL)-15b(FULL)-15------------15b(FULL)-15b(FULL)-15-12--------
 G/------------------------12------------------------------------------
 D/--------------------------------------------------------------------
 A/--------------------------------------------------------------------
 E/--------------------------------------------------------------------

  OUTRO(DIST.)(ALL BENDS ARE FULL)      ~~~~~~                   ~~~~~~ 
 e/----12-12--14-12--------------------------------------------15b---
 B/----12-12--12-12--15b-15b-15b-15b-15b-------15b-15b-15b-15b-------
 G/----13-13--13-13--------------------------------------------------
 D/----14-14---------------------------------------------------------
 A/------------------------------------------------------------------
 E/-12---------------------------------------------------------------
Comments