Jimi Hendrix - Fire Chords & Tabs

 

Fire Chords & Tabs

Jimi Hendrix Chords & Tabs

Version: 2 Type: Tab 0 ratings
1 star 2 stars 3 stars 4 stars 5 stars
comments

Fire Tab

FIRE – Jimi Hendrix

Tabbed by: Evan Carmouche
Email: voodoochild1717@hotmail.com

This is a very simplified version of Hendrix’s fire
for beginners/intermediates who know good music. :P


Intro/Verse:

e|--------X--------------------------I-----------------------12^----------|
B|--------X--------------------------I-----------------------12^----------|
G|--13-12-X-10-12--------------------I-----------------------12^----------|
D|--X--X--X-X--X--12-12—(repeat 2x)--I------10-12-12-(6x)-----------------|
A|--11-10-X-8--10--X--X--------------I---12-------12----------------------|
E|--------X-------10-10--------------I------------10----------------------|

Chorus:
(You can drop the bottom note if its too hard to finger)
[ Tab from: http://www.guitartabs.cc/tabs/j/jimi_hendrix/fire_tab_ver_2.html ]
e|---10-10-12-10-8----------------------------|
B|---10-10-10-10-8—(6x)-----------------------|
G|---11-11-11-11-9---------(repeat this 4x)---|
D|---12-12-12-12-10---------------------------|
A|--------------------------------------------|
E|--------------------------------------------|

Bridge/Solo:

e|--------------------10^----10^----12^----10^--------------|
B|------------------------8------8------10-----8------------|
G|----------------------------------------------------------|
D|--12--10--7--10-------------------------------------------|
A|--12--10--7--10-------------------------------------------|
E|--10--8---5--8--------------------------------------------|

ORDER:

Intro/Verse
Chorus
Verse
Chorus
Bridge
Solo
Intro
Verse
Chorus
Chorus (Play 2 Frets higher)
Chorus
Intro
Verse x1
Comments